Estação Solidão

Leonardo

 Leonardo
Tom: G
		
Intro: G A C G D

.  G.

E|--7---------7---8/10-8-7-----7-8-7-8-------|
B|---------8---------------------------------|
G|------7------------------------------------|
D|-------------------------------------------|
A|-------------------------------------------|
E|-------------------------------------------|


.  A.

E|--9----------9---10/12-10-9----9-10-9-10---|
B|---------10--------------------------------|
G|------9------------------------------------|
D|-------------------------------------------|
A|-------------------------------------------|
E|-------------------------------------------|

.  C.            D.                G


E|--12-10-8-8--------------------------------|
B|------------8--10/12-10-10-8-8-7-8---------|
G|-------------------------------------------|
D|-------------------------------------------|
A|-------------------------------------------|



 .   C.     D.                   G
E|--7-5-------------------------3------------|
B|------8-7-5-------------------3------------|
G|------------7-9-11------------0------------|
D|------------------------------0------------|
A|------------------------------2------------|
E|------------------------------3------------|

  G                                   Bm
Quando anoitece la fora me bate a lembrança
                               C
Do tempo em que eramos duas crianças
                  Em                 Am
Pensando que o mundo era um favo de mel

 C                                 G
Ah essa amor inocente era pra toda vida
                                A
Jamais entre nós nem adeus nem partida
                               D7
A nossa paixão tinha gosto de céu

 G                                   Bm
Parece até que foi ontem o primeiro beijo
                                C
Quando fecho os olhos ainda te vejo
             Em            Am
E sinto as batidas do seu coração

 C                                   G
Ah quanta coisa bonita num amor tão puro
                            A
Parece mentira que aquele futuro
               D7              G        C G D
Que a gente sonhou não passou de ilusão

Em                                     Bm
Veio nos trilhos do tempo o trêm do destino
                             C
E foi te levando por outros caminhos
             D7               G
Deixando me aqui na estação solidão

 A                                 G
E nessas idas e voltas da minha saudade
                          A7
Perdi o endereço da felicidade
              D7              G
Fiquei prisioneiro da recordação
29.250 exibições

Comentários 0

Composição: Sabe quem é o compositor? Envie pra gente. Contribuição: mora Correções: nandinhobaia e mais 1 »
Exibir acordes »
publicidade
fechar