Melhor pra Mim

Leoni

 Leoni
Tom: C
		
(intro)                        (solo)

E |----------------------15--|----------------------------------------------------
B |----13----15----13--------|---------------------------------------5------------
G |-12----12----12----12-----|-----------------------5---------5---8---7-7-5---5--
D |--------------------------|-------------------5-7---7---5-7---7-----------7----
A |--------------------------|-5-7-5----5-7-5-------------------------------------
E |--------------------------|-------8--------8-----------------------------------



E |-8-8-8-8-10-8-10--10-10-10-12-13-12-10-10-8-8--8-8-----------------------------
B |-8---8-----------------------------------------8-8--8-6-6-5-6-5---5------------
G |----------------------------------------------------------------5---7----------
D |-------------------------------------------------------------------------------
A |-------------------------------------------------------------------------------
E |-------------------------------------------------------------------------------


C9
Olhando as estrelas
Am
Nada no espaço
D7/9         F7+
Fica parado no lugar
C9
A Terra se move
Am
Os carros na estrada
D7/9
E eu dentro de um deles
Bb                   G
Corro mais só pra te encontrar

C9
Olhando o relógio
Am
o tempo não passa
D7/9            F7+
quando eu me afasto de você
C9
Mas se, de repente
Am
Ele fica apressado
D7/9
e as horas disparam
Bb               G
é só porque encontrei você

          F7+
E aí tudo muda
             G
Olhando pro céu
          F7+
E aí tudo muda
            G
Penso em você e eu

C9           G/B
A ciência confirma os fatos
       Am           F/C
Que o coração descobriu
C                  G/B
Nos seus braços sempre me esqueço
    Am
De tempo, espaço
  F/C
E no fim
Dm
Tudo é relativo
      Dm7(b5)                   C7+
Quando te fazer feliz me faz feliz
                   F/G
Se a historia for sempre assim
              C9
Melhor pra mim

C9
Olhando as pessoas
Am
falando de espaço
D7/9
mantendo distância
F7+
Sem saber
C9
Que antigas verdades
Am
viraram mentiras
D7/9
e nada protege
Bb                G
de uma paixão vir a acontecer
Texto Colunas
Alterar tom ½ tom ½ tom
afinação acordes na letra esconder tabs mais »
152.950 exibições

Comentários (2)

Composição: Leoni
Esse não é o compositor? Avise-nos.
Contribuição: Fusion1505 Correções: Yugui Blue »
  1. Tudo Que Você Quiser - Luan Santana Manteve-se 6.004 exibições
  2. Lepo Lepo - Psirico Manteve-se 4.431 exibições
  3. Mozão - Lucas Lucco Manteve-se 4.139 exibições
  4. Logo Eu - Jorge e Mateus Manteve-se 3.880 exibições
  5. Gaveta - Fernando e Sorocaba Manteve-se 3.331 exibições
  6. Pra Você - Onze:20 Manteve-se 3.309 exibições
  7. Só Os Loucos Sabem - Charlie Brown Jr. Manteve-se 3.010 exibições
  8. Tempo Perdido - Legião Urbana Manteve-se 2.530 exibições
  9. Fui Fiel - Gusttavo Lima Manteve-se 2.507 exibições
  10. Na Linha do Tempo - Victor e Leo Manteve-se 2.140 exibições
  1. Jorge e Mateus- Manteve-se 23.268 exibições
  2. Legião Urbana- Manteve-se 20.589 exibições
  3. Luan Santana- Manteve-se 17.386 exibições
  4. Charlie Brown Jr.- Manteve-se 17.172 exibições
  5. Fernandinho- Manteve-se 14.617 exibições
  6. Thalles Roberto- Manteve-se 11.189 exibições
  7. Católicas- Manteve-se 11.033 exibições
  8. Gusttavo Lima- Manteve-se 10.465 exibições
  9. Victor e Leo- Manteve-se 10.434 exibições
  10. Aline Barros- Manteve-se 10.076 exibições
Exibir acordes »

Cifras e tabs

Fórum Cifra Club

Aprenda

Cifra Club News

Mais Serviços Cifra Club ID

Studio Sol

©1996 - 2014 Cifra Club · o primeiro, maior e mais acessado do Brasil · 329 mil músicas · 5.9 milhões pessoas cadastradas

publicidade
fechar