Melhor pra Mim

Leoni

 Leoni
Tom: C
		
Intro:                        

E|----------------------15--|
B|----13----15----13--------|
G|-12----12----12----12-----|
D|--------------------------|
A|--------------------------|
E|--------------------------|


Solo:

E|------------------------------------------------------------------------|
B|-----------------------------------------------5------------------------|
G|-------------------------------5---------5---8---7-7-5---5--------------|
D|---------------------------5-7---7---5-7---7-----------7----------------|
A|---------5-7-5----5-7-5-------------------------------------------------|
E|---------------8--------8-----------------------------------------------|



E|-8-8-8-8-10-8-10--10-10-10-12-13-12-10-10-8-8--8-8----------------------|
B|-8---8-----------------------------------------8-8--8-6-6-5-6-5---5-----|
G|----------------------------------------------------------------5---7---|
D|------------------------------------------------------------------------|
A|------------------------------------------------------------------------|
E|------------------------------------------------------------------------|


C9
Olhando as estrelas
Am    C6/G
Nada no espaço
D7/9         F/C
Fica parado no lugar
C9
A Terra se move
Am       C6/G
Os carros na estrada
D7/9
E eu dentro de um deles
Bb9                   G
Corro mais só pra te encontrar

C9
Olhando o relógio
Am      C6/G
o tempo não passa
D7/9            F/C
quando eu me afasto de você
C9
Mas se, de repente
Am     C6/G
Ele fica apressado
D7/9
e as horas disparam
Bb9               G
é só porque encontrei você

          F/C
E aí tudo muda
             G
Olhando pro céu
          F/C
E aí tudo muda
            G
Penso em você e eu

C9           G/B
A ciência confirma os fatos
       Am           F/C
Que o coração descobriu
C9                  G/B
Nos seus braços sempre me esqueço
    Am
De tempo, espaço
  F/C
E no fim
Dm
Tudo é relativo
      Dm7(b5)                   C7+
Quando te fazer feliz me faz feliz
                   F/C
Se a historia for sempre assim
              C9
Melhor pra mim

C9
Olhando as pessoas
Am       C6/G
falando de espaço
D7/9
mantendo distância
F/C
Sem saber
C9
Que antigas verdades
Am     C6/G
viraram mentiras
D7/9
e nada protege
Bb9               G
de uma paixão vir a acontecer
157.552 exibições

Comentários 2

Composição: Leoni
Esse não é o compositor? Avise-nos.
Contribuição: Fusion1505 Correções: Julliano e mais 1 »
Exibir acordes »
publicidade
fechar