Segredos do Meu Cambicho

Leopoldo Rassier

Sem foto do Leopoldo Rassier Compositor: Jose Athanasio Borges e Doroteo Fagundes
Tom: G
		

                                                                  (B7) 
e|------3----2---3---5---8---------2---0---2---3---7--------3p2p0--2-------|
B|-----0----0---0---0-------------0---0---0---0-----------0---------0------|
G|-------------------------------------------------------------------2-----|
D|--------------------------------------------------------------------1----|
A|---------------------------------------------------------------------2---|
E|-------------------------------------------------------------------------|


                                                 (Em)

e|----------------------------------------------------0---|
B|---------------------------------------------------0----|
G|------2>5--4--2--0--------------------------------0-----|
D|-----1--------------4--2--1--2-------------------2------|
A|----2--------------------------3--2--0----------2-------|
E|-----------------------------------------3--2--0--------|


(milonga- começa dedilhada)

             Am
Num fim de tarde de qualquer Domingo
Em                       
Encilho o pingo e saio faceiro
F#7
arrastar asas pra china Rita
        B7                     Em
Filha bonita do bolicheiro
          Am
Levo a cordeona sempre na garupa
       Em      
E já num upa sigo pra o bolicho
         F#7
Meu pingo baio marcha com aprumo
           B7                       
Pois sabe o rumo deste meu cambicho.

 (aqui começa a batida mesmo)

G
Peço uma pura pra aquecer os dedos
B7
E os meus segredos escapam da garganta
Am
A noite escura no olhar da china
B7                            Em
De relancina vem buscar quem canta.
                       
                         B7
Como faz bem à alma do gaudério
                         Em
Esse mistério do olhar da amada
       Am                   
A gaita entende esses olhares mudos
           B7              Em
Que dizem tudo sem falarem nada

                            D7
E quando eu volto pra os meus pelegos
                         G
Desassossegos trago por parceiro
                    F#7
Um dia caso com a china Rita
                B7               Em
Filha bonita desse bolicheiro
                      
                         B7
Como faz bem à alma do gaudério
                         Em
Esse mistério do olhar da amada
       Am                   
A gaita entende esses olhares mudos
           B7              Em
Que dizem tudo sem falarem nada
10.433 exibições

Comentários 0

Composição: Sabe quem é o compositor? Envie pra gente. Contribuição: salis
Consegui tocarAinda não conseguiram tocar essa música. Seja o primeiro!
    Não consegui tocar
    Exibir acordes »
    publicidade
    fechar