Não Sou Criança

Lex Skate Rock

 Lex Skate Rock
Tom: G
		
Intro 2x: G  D  Em  D


E|------------------------------------------------------------------------|
A|------------------------------------------------------------------------|
D|----5-----------------------------------------------------------------5-|
G|---------4--5-----7-------------------------5---7-----4--5--4--5--4-----|
B|--------------------------8--7--8-----5---------------------------------|
E|------------------------------------------------------------------------|





E|------------------------------------------------------------------------|
A|------------------------------------------------------------------------|
D|----5-----------------------------------------------------------------5-|
G|---------4--5-----7-------------------------5---7-----4--5--4--5--4-----|
B|--------------------------8--10--8-----5--------------------------------|
E|------------------------------------------------------------------------|



Em                    D                            C
     Desde criança,       tenho a esperança de um mundo melhor em que eu pudesse viver
Em                   D                       C
     Mas me diziam,     não esta vendo, qual é a realidade que você esta vivendo
G                                   D                                 C
    Mas eu não aceitei tão fácil assim, pode crêr no que depender de mim eu vou fazer o que eu puder
G                                 D                            C
    eu sabia que existia alguém,      e hoje eu conheço muito bem  ninguém mais pode me enganar

Pré-refrão:
G                    D                     Em
    Não sou criança, mas, eu já sei muito bem,
                  D
Jesus me trouxe a paz quer te trazer também
G                                 D
   Demorou, mas eu descobri,      o motivo pra que eu nasci
      Em                                     D
Quero só pra mim, eu vou fazer de tudo pra mostrar que cristo a solução pra o mundo

Refrão:
G            D                       Am
   Quando achavam que não tinha mais jeito
       C                        G
Jesus fez o que ninguém teria feito
                    D                    Am
    Mudou a nossa sorte nos livrou da morte
           C
Veio pra fazer o que ninguém mais pode

( G  B ) (2x)

(Intro)
11.322 exibições

Comentários 1

  • smufalk smufalk: Postado em 31/03/2012 10:44

    *----* perfeito

Composição: Sabe quem é o compositor? Envie pra gente. Contribuição: maatheus Correções: israeldavi e mais 1 »
Exibir acordes »
publicidade
fechar