Ai Menina

Lia Sophia

 Lia Sophia Compositor: Lia Sophia
Tom: G
		

   Intro 2x: Em  B7  Em  C  B7
E|----7----------5----------------------------|
B|-88---8-5-7-77---7-3-5----------------------|
G|--------------------------------------------|
D|--------------------------------------------|
A|--------------------------------------------|
E|--------------------------------------------|



E|----7---------------------------------------|
B|-88---8-5-----------------------------------|
G|----------5-4-5-7/9-------------------------|
D|--------------------------------------------|
A|--------------------------------------------|
E|--------------------------------------------|


  Em                            Bm
Menina o que fazer com seu rebolado? Ai á
  Em                            Bm
Menina o que fazer com essa saia rodada? Ai á
  Am                          D7
Se o tambor começa, tua saia gira
                 D#º              Em
O mundo inteiro pára pra te ver menina

                               Bm
Me diz o que fazer com teu rebolado? Ai á
  Em                            Bm
Menina o que fazer com essa saia rodada? Ai á
Am                                 D7
É na palma, é no couro, essa roda gira
             D#º              Em
O que vou fazer pra te ter menina?

           Bm
Ai Menina, vem!

Pra roda vem!
Em
Ai Menina!
Bm           Am
Aqui tem carimbó
                             D7
Todo mundo balança no teu bailado
                  D#º          Em
Curimbó segue a ginga do teu rodar

Solo:


E|----------------------------------------------|
B|----------------------------------------------|
G|-----------------4----------------5----4------|
D|-----4-5--5-4-5----7--4-------4-7----7----5---|
A|-7-7--------------------6---6---------------7-|
E|----------------------------------------------|



E|---------------------------------------------|
B|-------5----4------------7-10--7-8-----------|
G|-----5----7----4-----------------------------|
D|-4-7-------------4-----9------------9--10-11-|
A|---------------------9-----------------------|
E|---------------------------------------------|



E|-7-7-7-7-7-7------8--------------------------7-----|
B|--------------10----7---10--10-10-10-10---8--------|
G|-----------------------------------------------9---|
D|---------------------------------------------------|
A|---------------------------------------------------|
E|---------------------------------------------------|



E|-----------------8-7-/12-11---------------------|
B|-8--8-8-8-8-----------------13--12-10-----------|
G|-------------11------------------------12-11-9--|
D|------------------------------------------------|
A|------------------------------------------------|
E|------------------------------------------------|
Texto Colunas
Alterar tom ½ tom ½ tom
afinação acordes na letra esconder tabs mais »
29.024 exibições

Comentários (5)

  • millacabral millacabral: Postado em 03/11/2012 13:13

    Como faz o ritmo da música ?

  • fernandao2012 fernandao2012: Postado em 24/10/2012 22:06

    Como saber se as correções propostas pelo prof_marco já foram aplicadas?

  • prof_marco prof_marco: Postado em 07/08/2012 05:12

    Já mandei a correção e outra coisa importante mudem os acordes façam todos com pestana, tipo Em faça na sétima casa que nem o Bm entenderam

  • prof_marco prof_marco: Postado em 07/08/2012 05:07

    já mandei a correção

  • prof_marco prof_marco: Postado em 06/08/2012 03:57

    Legal essa música, estilo paraense, tá errado o solo do inicio ai mais tá tranquilo concertei aki pra mim kkkk, o inicio tá certo

Composição: Sabe quem é o compositor? Envie pra gente. Contribuição: yanbelem Correções: mavih343 e mais 2 »
  1. Tudo Que Você Quiser - Luan Santana Manteve-se 6.028 exibições
  2. Lepo Lepo - Psirico Manteve-se 4.297 exibições
  3. Pra Você - Onze:20 Manteve-se 4.147 exibições
  4. Mozão - Lucas Lucco Manteve-se 4.130 exibições
  5. Logo Eu - Jorge e Mateus Manteve-se 3.983 exibições
  6. Gaveta - Fernando e Sorocaba Manteve-se 3.779 exibições
  7. Só Os Loucos Sabem - Charlie Brown Jr. Manteve-se 3.131 exibições
  8. Tempo Perdido - Legião Urbana Manteve-se 2.706 exibições
  9. Fui Fiel - Gusttavo Lima Manteve-se 2.673 exibições
  10. Domingo de Manha - Marcos e Belutti Manteve-se 2.465 exibições
  1. Jorge e Mateus- Manteve-se 23.782 exibições
  2. Legião Urbana- Manteve-se 21.512 exibições
  3. Charlie Brown Jr.- Manteve-se 17.212 exibições
  4. Luan Santana- Manteve-se 17.149 exibições
  5. Fernandinho- Manteve-se 15.105 exibições
  6. Thalles Roberto- Manteve-se 11.065 exibições
  7. Católicas- Manteve-se 10.946 exibições
  8. Gusttavo Lima- Manteve-se 10.939 exibições
  9. Victor e Leo- Manteve-se 10.661 exibições
  10. Bruno e Marrone- Manteve-se 10.324 exibições
Exibir acordes »

Cifras e tabs

Fórum Cifra Club

Aprenda

Cifra Club News

Mais Serviços Cifra Club ID

Studio Sol

©1996 - 2014 Cifra Club · o primeiro, maior e mais acessado do Brasil · 329 mil músicas · 6.0 milhões pessoas cadastradas

publicidade
fechar