Minha Fé

Lília Paz

 Lília Paz
Tom: A#
		
Gm
Tem tanta gente sendo totalmente enganada
Bb
Depositando sua fé em tanta coisa errada
F
Estão como o coxo em frente ao tanque a esperar
Cm
Não conseguem ver quem pode lhes fazer andar
Gm
É tanto amuleto tanta moda e heresia
Bb
E o povo cegamente acreditando dia a dia
F
Mas a igreja sabe em quem pode confiar
Cm
É só em Jesus Cristo outro nunca haverá

Gm
A verdadeira fé não está no tanque
Eb
Ela está na fonte de água viva lá da cruz
Bb
A verdadeira fé não está nos montes
F
Ela está firmada sobre a rocha que é Jesus
Gm
A verdadeira fé não idolatra os homens,
Eb
Pois ela está ligada na palavra que é fiel
Bb
A fé que é verdadeira permanece inabalável
F
A verdadeira fé faz Deus mover o céu

Gm
Pela fé vou marchar e sei que vou chegar
Eb
Pela fé eu vou crer crendo eu vou vencer
Bb
Pela fé vou orar e Deus vai me escutar
F
Pela fé eu sei que o meu milagre logo vai chegar
Gm
Pela fé vou louvar minha vida entregar
Cm
Pela fé o impossível eu vou ver acontecer
Eb
Pela fé ao mundo inteiro eu quero declarar
F
Que em Jesus a verdadeira fé firmada está

Pela fé (2º e 3º refrão)

Gm
A minha fé em Cristo me fará triunfar
Eb
A minha fé no Mestre faz se abrir o mar
Bb
A minha fé me faz ver o que é sobrenatural
F
E pela fé eu venço a tempestade e o vendaval
Gm
A minha fé está alicerçada na palavra
Eb
E pela fé eu vejo o Senhor mover as águas
Bb
A minha fé me faz acreditar que vou vencer
F                                     Gm
É pela fé que eu recebo a unção e o poder
Solo:

E|---------------------18-17----
B|--11\10/11---13--15--------13-
G|------------------------------
D|------------------------------
A|------------------------------
E|------------------------------



E|--------------------------------------------------
B|--11\10/11---13--15-15/16--13-13/15--13--10-------
G|--------------------------------------------11----
D|--------------------------------------------------
A|-----------------------------------------------10-
E|--------------------------------------------------
2.539 exibições

Comentários 0

Composição: Leiva Cesar Delfim
Esse não é o compositor? Avise-nos.
Contribuição: MySphere Correções: PARA OS INTIMUS NEGO »
Consegui tocarAinda não conseguiram tocar essa música. Seja o primeiro!
    Não consegui tocar
    Exibir acordes »
    publicidade
    fechar