Ponto Final

Limão Com Mel

 Limão Com Mel
Tom: G
		
solo:
                                      Arp

e|------------------------------------10---------------------------10/7--|
B|--10b12--12r10-8-10b12-10-8-8-8b10--10--10h12-10-8----8-10-12~---10/7--|
G|------------------------------------11-------------11------------------|
D|-----------------------------------------------------------------------|
A|-----------------------------------------------------------------------|
E|-----------------------------------------------------------------------|

                                 Arp

e|-------------------------------10----------------------------------------------|
B|--10b12-10-8-10b12-10-8-8-8b10-10--10h12-10-8----8-7---7-----------------------|
G|-------------------------------11-------------11-----9---9-8-9-----------------|
D|---------------------------------------------------------------7-9-10-9-7-9----|
A|----------------------------------------------------------------------------7~-|
E|-------------------------------------------------------------------------------|


Em
Ninguém vai conseguir tirar você de mim
                                 Am  
Eu posso apostar todas as minhas fichas
                      D B7   
Que nada vai me separar do grande amor
           Em
da minha vida.



Voltei pra resgatar pegar o que é meu
                              Am
Sei que vai perdoar as nossas fantasias
                         D 
Pois nosso amor é feito mar
B7                     Em
Profundo e cheio de magia
Am      Em  
Te amo, amor
Am   C     B7
Te amo é amor


(refrão)

Em                    Am
Eu não joguei pra perder,
                     D
Voltei com sede de amar
B7                     Em
Recomeçar as nossas vidas
                       Am
Escute o que eu vou dizer,
                    D
Estou aqui pra te amar
        B7		      Em    B7   
Ponto final, minha querida.


                              Em
(Voltei pra resgatar o que é meu...



E|--3-3-3-3--2-0---3-3-3-3-3--2-0--3--2-2--3---5--3-2--3-2-0      Repete duas vezes no refrao
B|----------------------------------------------------------      este solo
G|----------------------------------------------------------
D|----------------------------------------------------------
A|----------------------------------------------------------
E|----------------------------------------------------------
--------------------------




O tom (Em) foi usado no seu Acustico, mais o tom Original do CD Ao vivo
II é Fm, mais eu transcrevi do Acustico, valeu galera.




Correção: Thiago lopes da silva()
45.996 exibições

Comentários 0

Composição: Batista Lima
Esse não é o compositor? Avise-nos.
Contribuição: Xexeu
Consegui tocarAinda não conseguiram tocar essa música. Seja o primeiro!
    Não consegui tocar
    Exibir acordes »
    publicidade
    fechar