From the Inside

Linkin Park

 Linkin Park
Tom: C
Afinação: Eb Ab Db Gb Bb Eb
		
Afinação: Db Ab Db Gb Bb Eb ( Dropada Em Ré Bemol )

Intro - Guitars 1 and 2

|-------------------------------------------------------------------------|
|-------------------------------------------------------------------------|
|-------------------------------------------------------------------------|
|-0--0-----0-----0--0--0-----0-----0--3--3-----3-----3--3--3-----3-----3--|
|-0--0-----0-----0--0--0-----0-----0--3--3-----3-----3--3--3-----3-----3--|
|-0--0-----0-----0--0--0-----0-----0--3--3-----3-----3--3--3-----3-----3--|



|-------------------------------------------------------------------------|
|-------------------------------------------------------------------------|
|-------------------------------------------------------------------------|
|-8--8-----8-----8--8--8-----8-----8--5--5-----5-----5--7--7-----7-----7--|
|-8--8-----8-----8--8--8-----8-----8--5--5-----5-----5--7--7-----7-----7--|
|-8--8-----8-----8--8--8-----8-----8--5--5-----5-----5--7--7-----7-----7--|



|-------------------------------------------------------------------------|
|-------------------------------------------------------------------------|
|-------------------------------------------------------------------------|
|-0--0-----0-----0--0--0-----0-----0--3--3-----3-----3--3--3-----3-----3--|
|-0--0-----0-----0--0--0-----0-----0--3--3-----3-----3--3--3-----3-----3--|
|-0--0-----0-----0--0--0-----0-----0--3--3-----3-----3--3--3-----3-----3--|



|-------------------------------------------------------------------------|
|-------------------------------------------------------------------------|
|-------------------------------------------------------------------------|
|-8--8-----8-----8--8--8-----8-----8--5--5-----5-----5--7--7-----7-----7--|
|-8--8-----8-----8--8--8-----8-----8--5--5-----5-----5--7--7-----7-----7--|
|-8--8-----8-----8--8--8-----8-----8--5--5-----5-----5--7--7-----7-----7--|


First Verse - Guitar 3

|-5-----------5-----------5-----------------------------------------------|
|-------------------------------------8-----------8-----------5-----------|
|-------7-----------7-----------7-----------7-----------7-----------7-----|
|-------------------------------------------------------------------------|
|-------------------------------------------------------------------------|
|-------------------------------------------------------------------------|



|-5-----------5-----------5-----------------------------------------------|
|-------------------------------------5-----------5-----------6-----------|
|-------7-----------7-----------7-----------7-----------7-----------7-----|
|-------------------------------------------------------------------------|
|-------------------------------------------------------------------------|
|-------------------------------------------------------------------------|



|-5-----------5-----------5-----------------------------------------------|
|-------------------------------------8-----------8-----------5-----------|
|-------7-----------7-----------7-----------7-----------7-----------7-----|
|-------------------------------------------------------------------------|
|-------------------------------------------------------------------------|
|-------------------------------------------------------------------------|



|-5-----------5-----------5-----------------------------------------------|
|-------------------------------------5-----------5-----------6-----------|
|-------7-----------7-----------7-----------7-----------7-----------7-----|
|-------------------------------------------------------------------------|
|-------------------------------------------------------------------------|
|-------------------------------------------------------------------------|



|-5-----------5-----------5-----------------------------------------------|
|-------------------------------------8-----------8-----------5-----------|
|-------7-----------7-----------7-----------7-----------7-----------7-----|
|-------------------------------------------------------------------------|
|-------------------------------------------------------------------------|
|-------------------------------------------------------------------------|



|-5-----------5-----------5-----------------------------------------------|
|-------------------------------------5-----------5-----------6-----------|
|-------7-----------7-----------7-----------7-----------7-----------7-----|
|-------------------------------------------------------------------------|
|-------------------------------------------------------------------------|
|-------------------------------------------------------------------------|



|-5-----------5-----------5-----------------------------------------------|
|-------------------------------------8-----------8-----------5-----------|
|-------7-----------7-----------7-----------7-----------7-----------7-----|
|-------------------------------------------------------------------------|
|-------------------------------------------------------------------------|
|-------------------------------------------------------------------------|



|-------------------------------------------------------------------------|
|-------------------------------------------------------------------------|
|-------------------------------------------------------------------------|
|-------------------------------------------------------------------------|
|-------------------------------------------------------------------------|
|-------------------------------------------------------------5*-5*-5*-5*-|
|Guitar 1
|
|-------------------------------------------------------------------------|
|-------------------------------------------------------------------------|
|-------------------------------------------------------------------------|
|-------------------------------------------------------------x--x--x--x--|
|-------------------------------------------------------------x--x--x--x--|
|-------------------------------------------------------------x--x--x--x--|
|Guitar 2
|
|-5-----------5-----------5-----------5-----------5-----------------------|
|-------------------------------------------------------------------------|
|-------7-----------7-----------7-----------7-----------7-----------------|
|-------------------------------------------------------------------------|
|-------------------------------------------------------------------------|
|-------------------------------------------------------------------------|
|Guitar 3


Chorus - Guitars 1 and 2

|-------------------------------------------------------------------------|
|-------------------------------------------------------------------------|
|-------------------------------------------------------------------------|
|-0--0-----0-----0--0--0-----0-----0--3--3-----3-----3--3--3-----3-----3--|
|-0--0-----0-----0--0--0-----0-----0--3--3-----3-----3--3--3-----3-----3--|
|-0--0-----0-----0--0--0-----0-----0--3--3-----3-----3--3--3-----3-----3--|



|-------------------------------------------------------------------------|
|-------------------------------------------------------------------------|
|-------------------------------------------------------------------------|
|-8--8-----8-----8--8--8-----8-----8--5--5-----5-----5--7--7-----7-----7--|
|-8--8-----8-----8--8--8-----8-----8--5--5-----5-----5--7--7-----7-----7--|
|-8--8-----8-----8--8--8-----8-----8--5--5-----5-----5--7--7-----7-----7--|



|-------------------------------------------------------------------------|
|-------------------------------------------------------------------------|
|-------------------------------------------------------------------------|
|-0--0-----0-----0--0--0-----0-----0--3--3-----3-----3--3--3-----3-----3--|
|-0--0-----0-----0--0--0-----0-----0--3--3-----3-----3--3--3-----3-----3--|
|-0--0-----0-----0--0--0-----0-----0--3--3-----3-----3--3--3-----3-----3--|



|-------------------------------------------------------------------------|
|-------------------------------------------------------------------------|
|-------------------------------------------------------------------------|
|-8--8-----8-----8--8--8-----8-----8--5--5-----5-----5--7--7-----7-----7--|
|-8--8-----8-----8--8--8-----8-----8--5--5-----5-----5--7--7-----7-----7--|
|-8--8-----8-----8--8--8-----8-----8--5--5-----5-----5--7--7-----7-----7--|


2nd Verse - Guitar 3

|-5-----------5-----------5-----------------------------------------------|
|-------------------------------------8-----------8-----------5-----------|
|-------7-----------7-----------7-----------7-----------7-----------7-----|
|-------------------------------------------------------------------------|
|-------------------------------------------------------------------------|
|-------------------------------------------------------------------------|



|-5-----------5-----------5-----------------------------------------------|
|-------------------------------------5-----------5-----------6-----------|
|-------7-----------7-----------7-----------7-----------7-----------7-----|
|-------------------------------------------------------------------------|
|-------------------------------------------------------------------------|
|-------------------------------------------------------------------------|



|-5-----------5-----------5-----------------------------------------------|
|-------------------------------------8-----------8-----------5-----------|
|-------7-----------7-----------7-----------7-----------7-----------7-----|
|-------------------------------------------------------------------------|
|-------------------------------------------------------------------------|
|-------------------------------------------------------------------------|



|-5-----------5-----------5-----------------------------------------------|
|-------------------------------------5-----------5-----------6-----------|
|-------7-----------7-----------7-----------7-----------7-----------7-----|
|-------------------------------------------------------------------------|
|-------------------------------------------------------------------------|
|-------------------------------------------------------------------------|



|-5-----------5-----------5-----------------------------------------------|
|-------------------------------------8-----------8-----------5-----------|
|-------7-----------7-----------7-----------7-----------7-----------7-----|
|-------------------------------------------------------------------------|
|-------------------------------------------------------------------------|
|-------------------------------------------------------------------------|



|-5-----------5-----------5-----------------------------------------------|
|-------------------------------------5-----------5-----------6-----------|
|-------7-----------7-----------7-----------7-----------7-----------7-----|
|-------------------------------------------------------------------------|
|-------------------------------------------------------------------------|
|-------------------------------------------------------------------------|



|-5-----------5-----------5-----------------------------------------------|
|-------------------------------------8-----------8-----------5-----------|
|-------7-----------7-----------7-----------7-----------7-----------7-----|
|-------------------------------------------------------------------------|
|-------------------------------------------------------------------------|
|-------------------------------------------------------------------------|



|-------------------------------------------------------------------------|
|-------------------------------------------------------------------------|
|-------------------------------------------------------------------------|
|-------------------------------------------------------------------------|
|-------------------------------------------------------------------------|
|-------------------------------------------------------------5*----5*-5*-|
|Guitar 1
|
|-------------------------------------------------------------------------|
|-------------------------------------------------------------------------|
|-------------------------------------------------------------------------|
|-------------------------------------------------------------x-----x--x--|
|-------------------------------------------------------------x-----x--x--|
|-------------------------------------------------------------x-----x--x--|
|Guitar 2
|
|-5-----------5-----------5-----------5-----------5-----------------------|
|-------------------------------------------------------------------------|
|-------7-----------7-----------7-----------7-----------7-----------------|
|-------------------------------------------------------------------------|
|-------------------------------------------------------------------------|
|-------------------------------------------------------------------------|
|Guitar 3


Chorus - Guitars 1 and 2

|-------------------------------------------------------------------------|
|-------------------------------------------------------------------------|
|-------------------------------------------------------------------------|
|-0--0-----0-----0--0--0-----0-----0--3--3-----3-----3--3--3-----3-----3--|
|-0--0-----0-----0--0--0-----0-----0--3--3-----3-----3--3--3-----3-----3--|
|-0--0-----0-----0--0--0-----0-----0--3--3-----3-----3--3--3-----3-----3--|



|-------------------------------------------------------------------------|
|-------------------------------------------------------------------------|
|-------------------------------------------------------------------------|
|-8--8-----8-----8--8--8-----8-----8--5--5-----5-----5--7--7-----7-----7--|
|-8--8-----8-----8--8--8-----8-----8--5--5-----5-----5--7--7-----7-----7--|
|-8--8-----8-----8--8--8-----8-----8--5--5-----5-----5--7--7-----7-----7--|



|-------------------------------------------------------------------------|
|-------------------------------------------------------------------------|
|-------------------------------------------------------------------------|
|-0--0-----0-----0--0--0-----0-----0--3--3-----3-----3--3--3-----3-----3--|
|-0--0-----0-----0--0--0-----0-----0--3--3-----3-----3--3--3-----3-----3--|
|-0--0-----0-----0--0--0-----0-----0--3--3-----3-----3--3--3-----3-----3--|



|-------------------------------------------------------------------------|
|-------------------------------------------------------------------------|
|-------------------------------------------------------------------------|
|-8--8-----8-----8--8--8-----8-----8--7--7-----7-----7--7--7-----7-----7--|
|-8--8-----8-----8--8--8-----8-----8--7--7-----7-----7--7--7-----7-----7--|
|-8--8-----8-----8--8--8-----8-----8--7--7-----7-----7--7--7-----7-----7--|


Breakdown - Guitars 1 and 2

|-------------------------------------------------------------------------|
|-------------------------------------------------------------------------|
|-------------------------------------------------------------------------|
|-0--0-----0-----0--------------------0--0-----0-----0--------------------|
|-0--0-----0-----0--------------------0--0-----0-----0--------------------|
|-0--0-----0-----0--------------------0--0-----0-----0--------------------|



|-------------------------------------------------------------------------|
|-------------------------------------------------------------------------|
|-------------------------------------------------------------------------|
|-0--0-----0-----0--------------------1--1-----1-----1--------------------|
|-0--0-----0-----0--------------------1--1-----1-----1--------------------|
|-0--0-----0-----0--------------------1--1-----1-----1--------------------|


Bridge

|-------------------------------------------------------------------------|
|-------------------------------------------------------------------------|
|-------------------------------------------------------------------------|
|-0--0-----0-----0--------0-----1-----0--0-----0-----0--------0-----1-----|
|-0--0-----0-----0--7*----0-----1-----0--0-----0-----0--7*----0-----1-----|
|-0--0-----0-----0--------0-----1-----0--0-----0-----0--------0-----1-----|
|Guitar 1
|
|-------------------------------------------------------------------------|
|-------------------------------------------------------------------------|
|-------------------------------------------------------------------------|
|-0--0-----0-----0--------0-----1-----0--0-----0-----0--------0-----1-----|
|-0--0-----0-----0--------0-----1-----0--0-----0-----0--------0-----1-----|
|-0--0-----0-----0--------0-----1-----0--0-----0-----0--------0-----1-----|
|Guitar 2



|-------------------------------------------------------------------------|
|-------------------------------------------------------------------------|
|-------------------------------------------------------------------------|
|-0--0-----0-----0--------0-----1-----1--1-----1-----1--1--1-----1-----1--|
|-0--0-----0-----0--7*----0-----1-----1--1-----1-----1--1--1-----1-----1--|
|-0--0-----0-----0--------0-----1-----1--1-----1-----1--1--1-----1-----1--|
|Guitar 1
|
|-------------------------------------------------------------------------|
|-------------------------------------------------------------------------|
|-------------------------------------------------------------------------|
|-0--0-----0-----0--------0-----1-----1--1-----1-----1--1--1-----1-----1--|
|-0--0-----0-----0--------0-----1-----1--1-----1-----1--1--1-----1-----1--|
|-0--0-----0-----0--------0-----1-----1--1-----1-----1--1--1-----1-----1--|
|Guitar 2



|-------------------------------------------------------------------------|
|-------------------------------------------------------------------------|
|-------------------------------------------------------------------------|
|-0--0-----0-----0--------0-----1-----0--0-----0-----0--------0-----1-----|
|-0--0-----0-----0--7*----0-----1-----0--0-----0-----0--7*----0-----1-----|
|-0--0-----0-----0--------0-----1-----0--0-----0-----0--------0-----1-----|
|Guitar 1
|
|-------------------------------------------------------------------------|
|-------------------------------------------------------------------------|
|-------------------------------------------------------------------------|
|-0--0-----0-----0--------0-----1-----0--0-----0-----0--------0-----1-----|
|-0--0-----0-----0--------0-----1-----0--0-----0-----0--------0-----1-----|
|-0--0-----0-----0--------0-----1-----0--0-----0-----0--------0-----1-----|
|Guitar 2



|-------------------------------------------------------------------------|
|-------------------------------------------------------------------------|
|-------------------------------------------------------------------------|
|-0--0-----0-----0--------0-----1-----1--1-----1-----1--1--1-----1-----1--|
|-0--0-----0-----0--7*----0-----1-----1--1-----1-----1--1--1-----1-----1--|
|-0--0-----0-----0--------0-----1-----1--1-----1-----1--1--1-----1-----1--|
|Guitar 1
|
|-------------------------------------------------------------------------|
|-------------------------------------------------------------------------|
|-------------------------------------------------------------------------|
|-0--0-----0-----0--------0-----1-----1--1-----1-----1--1--1-----1-----1--|
|-0--0-----0-----0--------0-----1-----1--1-----1-----1--1--1-----1-----1--|
|-0--0-----0-----0--------0-----1-----1--1-----1-----1--1--1-----1-----1--|
|Guitar 2


Final Chorus - Guitars 1 and 2

|-------------------------------------------------------------------------|
|-------------------------------------------------------------------------|
|-------------------------------------------------------------------------|
|-------------------------------------------------------------------------|
|-------------------------------------------------------------------------|
|-------------------------------------------------------------------------|



|-------------------------------------------------------------------------|
|-------------------------------------------------------------------------|
|-------------------------------------------------------------------------|
|-8--8-----8-----8--8--8-----8-----8--5--5-----5-----5--7--7-----7-----7--|
|-8--8-----8-----8--8--8-----8-----8--5--5-----5-----5--7--7-----7-----7--|
|-8--8-----8-----8--8--8-----8-----8--5--5-----5-----5--7--7-----7-----7--|



|-------------------------------------------------------------------------|
|-------------------------------------------------------------------------|
|-------------------------------------------------------------------------|
|-0--0-----0-----0--0--0-----0-----0--3--3-----3-----3--3--3-----3-----3--|
|-0--0-----0-----0--0--0-----0-----0--3--3-----3-----3--3--3-----3-----3--|
|-0--0-----0-----0--0--0-----0-----0--3--3-----3-----3--3--3-----3-----3--|



|-------------------------------------------------------------------------|
|-------------------------------------------------------------------------|
|-------------------------------------------------------------------------|
|-8--8-----8-----8--8--8-----8-----8--5--5-----5-----5--7--7-----7-----7--|
|-8--8-----8-----8--8--8-----8-----8--5--5-----5-----5--7--7-----7-----7--|
|-8--8-----8-----8--8--8-----8-----8--5--5-----5-----5--7--7-----7-----7--|



|-------------------------------------------------------------------------|
|-------------------------------------------------------------------------|
|-------------------------------------------------------------------------|
|-0--0-----0-----0--0--0-----0-----0--3--3-----3-----3--3--3-----3-----3--|
|-0--0-----0-----0--0--0-----0-----0--3--3-----3-----3--3--3-----3-----3--|
|-0--0-----0-----0--0--0-----0-----0--3--3-----3-----3--3--3-----3-----3--|



|-------------------------------------------------------------------------|
|-------------------------------------------------------------------------|
|-------------------------------------------------------------------------|
|-8--8-----8-----8--8--8-----8-----8--5--5-----5-----5--7--7-----7-----7--|
|-8--8-----8-----8--8--8-----8-----8--5--5-----5-----5--7--7-----7-----7--|
|-8--8-----8-----8--8--8-----8-----8--5--5-----5-----5--7--7-----7-----7--|



|-------------------------------------------------------------------------|
|-------------------------------------------------------------------------|
|-------------------------------------------------------------------------|
|-0--0-----0-----0--0--0-----0-----0--3--3-----3-----3--3--3-----3-----3--|
|-0--0-----0-----0--0--0-----0-----0--3--3-----3-----3--3--3-----3-----3--|
|-0--0-----0-----0--0--0-----0-----0--3--3-----3-----3--3--3-----3-----3--|



|-------------------------------------------------------------------------|
|-------------------------------------------------------------------------|
|-------------------------------------------------------------------------|
|-8--8-----8-----8--8--8-----8-----8--7--7-----7-----7--7--7-----7-----7--|
|-8--8-----8-----8--8--8-----8-----8--7--7-----7-----7--7--7-----7-----7--|
|-8--8-----8-----8--8--8-----8-----8--7--7-----7-----7--7--7-----7-----7--|


Ending - Guitars 1 and 2

|-------------------------------------------------------------------------|
|-------------------------------------------------------------------------|
|-------------------------------------------------------------------------|
|-0--0-----0-----0--------------------0--0-----0-----0--------------------|
|-0--0-----0-----0--------------------0--0-----0-----0--------------------|
|-0--0-----0-----0--------------------0--0-----0-----0--------------------|



|-------------------------------------------------------------------------|
|-------------------------------------------------------------------------|
|-------------------------------------------------------------------------|
|-0--0-----0-----0--------------------0--0-----0-----0--------------------|
|-0--0-----0-----0--------------------0--0-----0-----0--------------------|
|-0--0-----0-----0--------------------0--0-----0-----0--------------------|

|Guitar 1
|
|-------------------------------------------------------------------------|
|-------------------------------------------------------------------------|
|-------------------------------------------------------------------------|
|-0--0-----0-----0--------------------------------------------------------|
|-0--0-----0-----0--------------------------------------------------------|
|-0--0-----0-----0--------------------------------------------------------|
|Guitar 2

Comentários 4

  • Matheus Matheus: Postado em 23/02/2014 13:27

    Qual a afinação ???

    • Lenilson Lenilson: Postado em 24/08/2014 18:07

      Comentário removido

  • laurinha5 laurinha5: Postado em 08/05/2013 12:33

    Afinação?

  • darkbinary darkbinary: Postado em 15/11/2012 06:21

    VIDEO AULA..!!! POR FAVOR

Composição: Linkin Park
Esse não é o compositor? Avise-nos.
Contribuição: Garrido Correções: mss99gamer e mais 2 »
Exibir acordes »
publicidade
fechar