In Pieces

Linkin Park

 Linkin Park
Tom: F
		

|------------|--------------|--------------|---------------|
|-11---9--9--|-11---9--9--9-|-11---9--9--9-|-9--9--9--8--8-|
|-10---8--8--|-10---8--8--8-|-10---8--8--8-|-8--8--8--7--7-|
|-8----6--6--|-8----6--6--6-|-8----6--6--6-|-6--6--6--5--5-|
|------------|--------------|--------------|---------------|
|------------|--------------|--------------|---------------|



|--------------|--------------|------------|------------|
|-9--9--9--11--|-9--9--9--11--|-9--9--9--9-|-9--9--8--8-|
|-8--8--8--10--|-8--8--8--10--|-8--8--8--8-|-8--8--7--7-|
|-6--6--6--8---|-6--6--6--8---|-6--6--6--6-|-6--6--5--5-|
|--------------|--------------|------------|------------|
|--------------|--------------|------------|------------|



|--------------|--------------|--------------|------------|
|-9--11--9--9--|-9--11--9--9--|-9--11--9--9--|-9--9--8--8-|
|-8--10--8--8--|-8--10--8--8--|-8--10--8--8--|-8--8--7--7-|
|-6--8---6--6--|-6--8---6--6--|-6--8---6--6--|-6--6--5--5-|
|--------------|--------------|--------------|------------|
|--------------|--------------|--------------|------------|



|----------------|----------------|------------------|------------------|
|-13--14--16--16-|-13--14--16--16-|--13--13--13--13--|--11--11--11--11--|
|-12--13--15--15-|-12--13--15--15-|--12--12--12--12--|--10--10--10--10--|
|-10--11--13--13-|-10--11--13--13-|--10--10--10--10--|--8---8---8---8---|
|----------------|----------------|------------------|------------------|
|----------------|----------------|------------------|------------------|



|------------|----------|
|------------|----------|
|------------|----------|
|17p15-------|-17-------|
|------17p15-|----17-15-|
|------------|----------|



|-------------------------------------------------|
|-------------------------------------------------|
|-------------------------------------------------|
|-18-18-18-18-18-18-18-18-17-17-17-17-17-17-17-17-|
|-------------------------------------------------|
|-------------------------------------------------|



|-------------|----------------------------|
|-------------|----------------------------|
|-------------|-------15-17-17p15-------17-|
|-17p15-------|-15-17-------------17p15----|
|-------17p15-|----------------------------|
|-------------|----------------------------|



|-------------------------------|
|-------------------------------|
|-------15-17-17p15-------15-17-|
|-15-17-------------17p15-------|
|-------------------------------|
|-------------------------------|



|-------------|-------------------------|
|-------------|-------------------------|
|-17p15-------|-17-17-17-17-17-17-17-17-|
|-------17p15-|-------------------------|
|-------------|-------------------------|
|-------------|-------------------------|



|-------------------------------|
|-------------------------------|
|--10---------------------------|
|--10------11------8------10----|
|---8------11------8------10----|
|----------11------8------10----|



|--------------------------------|
|--17------17--------------------|
|------------------17------15----|
|--------------------------------|
|--------------------------------|
|--------------------------------|
10.272 exibições

Comentários 0

Composição: Chester Bennington / Chico Buarque / Lamar Hula Mahone / Linkin Park / Mike Shinoda / Rone Costa
Esse não é o compositor? Avise-nos.
Contribuição: Mah Decoy!
Consegui tocarAinda não conseguiram tocar essa música. Seja o primeiro!
    Não consegui tocar
    Exibir acordes »
    publicidade
    fechar