All The Kids Are Right

Local H

 Local H
Tom: C
		
From " Pack up the Cats"

Tune your guitar 1/2 Step down


e|----------------------------------------
b|----------------------------------------
g|-----------------7--7--7-7-7-7---7-------
d|-----11--9-7-9--7--7--7-7-7-7---7-------
a|------9--7-5-7--5--5--5-5-5-5---5-------
E|----------------------------------------



Verse
Part 1

e|-----------------------------
b|---------------3--3----------
g|---------------2--2----------
d|-----4-2-0-2---0--0----------X 2
a|-----------------------------
E|-----------------------------



e|---------------------------------------------
b|---------------------------------------------
g|---------------4--4--4-4-4-4--4-4-4-4--4-4--
d|-2--4--2-0-2--4--4--4-4-4-4--4-4-4-4--4-4--
a|---------------2--2--2-2-2-2--2-2-2-2--2-2--
E|----------------------------------------------



Part B
  "It's never good when things things go bad"

e|-----------------------------------------------------
b|-----------------------------------------------------
g|----------------------------7--7--7-7-7-7------------
d|-11-9-7-9---5-5--5-5-5-5---7--7--7-7-7-7------------X2
a|-9--7-5-7---5-5--5-5-5-5---5--5--5-5-5-5------------
E|-------------3-3--3-3-3-3---------------------------


Part C
 "Cause you won't wear our T-shirts now.....anymore"

e|-----------------------------|----------------------------
b|-----------------------------|----------------------------
g|-4--4------------------------|---------7--7--7-7-7-7--7--7-
d|-4--4--7--7--5--5--5-5-5-5---|--------7--7--7-7-7-7--7--7-
a|-2--2--7--7--5--5--5-5-5-5---|--------5--5--5-5-5-5--5--5-
E|-------5--5--3--3--3-3-3-3---|----------------------------



Part A
  "First the band looked wired, then the band look tired...."

e|------------------------------------------
b|------------------------------------------
g|-7-7-7-7-7-7-7-7-4-4-4-4-4-4-4-4----------
d|-7-7-7-7-7-7-7-7-4-4-4-4-4-4-4-4----------
a|-5-5-5-5-5-5-5-5-2-2-2-2-2-2-2-2----------
E|------------------------------------------


Part B X2
Part C X1

Chorus


e|-----------------------------------------------------
b|-----------------------------------------------------
g|-7--7-7-7-7-7-4--4-4-4-4-4---------------------------
d|-7--7-7-7-7-7-4--4-4-4-4-4--5--5-5-5-5--5--5-5-5-5---X 2 
a|-5--5-5-5-5-5-2--2-2-2-2-2--5--5-5-5-5--5--5-5-5-5---
E|------------------------------3--3-3-3-3--3--3-3-3-3---



e|---------------------------------------------------
b|---------------------------------------------------
g|---------------------------------------------------
d|-9--9-9-9-9-9-7--7-7-7-7-7--5--5-5-5-5--5--5-5-5-5-
a|-9--9-9-9-9-9-7--7-7-7-7-7--5--5-5-5-5--5--5-5-5-5-
E|-7--7-7-7-7-7-5--5-5-5-5-5--3--3-3-3-3--3--3-3-3-3-



"It's all right to admit........"

                          ************

e|----------------------------------------------
b|----------------------------------------------
g|-4--4--4-4-4-2--2--2-2--7-7-7-7-7-7-----------
d|-4--4--4-4-4-2--2--2-2--7-7-7-7-7-7-----------
a|-2--2--2-2-2-0--0--0-0--5-5-5-5-5-5.......----
E|----------------------------------------------


Guitar 2 (play this at ***** above)

e|------------------------------------------
b|-10-10-10-10-10-10-10-10-10---------------
g|-14-14-14-14-14-14-14-14-14..............-play going into solo
d|------------------------------------------
a|------------------------------------------
E|------------------------------------------



Solo

e|----------------------------------------------------------------
b|-10-8-7-8------10----10h12p10----------10----10h12p12-----------
g|-11-9-7-9--11-----11----------11--9-------11----------11--------
d|---------------------------------------------------------12--12--
a|------------------------------------------------------------------
E|------------------------------------------------------------------



e|---------------------------------------------------------------------
b|---------------------------------------------------------------------
g|---------------------------------------------------------------------
d|-12-12-12-12-12-12-12-12-12-14///16-14-12-9-12-12-12-12-12-----
a|---------------------------------------------------------------------
E|---------------------------------------------------------------------
418 exibições

Comentários 0

Exibir acordes »
publicidade
fechar