High Fiving Mother Fucker

Local H

 Local H
Tom: C
		
Track #2 on "As Good As Dead"
Transcribed by Scott Schuman

Dropped D tuning, tuned down 1/2 step

Um.... this first intro part is bascially played however you feel like it 
with feedback and all of that cool stuff. When played live Scott swings his
guitar in front of his amp with open strings or an E chord, I think. Improv

it!!!  -------------------feedback--------------------
e----0------------------------------------------------
B----0------------------------------------------------
G----0------------------------------------------------
D----0------------------------------------------------
A----0------------------------------------------------
D----0------------------------------------------------


After the feedback part is basically the verse riff. Play this 4 times 
without muting it. Then when he starts singing, mute it.

e-------------------------------------------------
B-------------------------------------------------
G-------------------------------------------------
D--5-5-3-3-0-0-3-3-5-5--5--5-3-0-5-5-3-3-0-3-5-5--
A--5-5-3-3-0-0-3-3-5-5--5--5-3-0-5-5-3-3-0-3-5-5--
D--5-5-3-3-0-0-3-3-5-5--5--5-3-0-5-5-3-3-0-3-5-5--


The next part, "you're just a walking billboard," play 4x.


e--------------------------------------
B--------------------------------------
G--------------------------------------
D--5-5-3-3-0-0-3-3-5-5-3-3-0---12\-----
A--5-5-3-3-0-0-3-3-5-5-3-3-0---12\-----
D--5-5-3-3-0-0-3-3-5-5-3-3-0---12\-----


The next part has two parts, well actually 3 total.


e-----------------------------------|        -----------------------
B-----------------------------------|        -----------------------
G--7-7-7-7-7-7-7-7-7-7-7-7-7-7-7-7--|  3x    -7-7-7-7-7-7--7-7-7---- 
D--0-0------------------------------| then   -0-0----------0-0-0---- 
A--0-0------------------------------|        -0-0----------0-0-0----
D--0-0------------------------------|        -0-0----------0-0-0----


Then play this part 4x if I remember correctly.

e-------------------------------------------------------------
B-------------------------------------------------------------
G-------------------------------------------------------------
D--12\-3-3-3-3-3-3-3-3-3-3-3-3-3-0-0-0-0-0-0-0-0-0-0-0-0-0-0--
A--12\-3-3-3-3-3-3-3-3-3-3-3-3-3-0-0-0-0-0-0-0-0-0-0-0-0-0-0--
D--12\-3-3-3-3-3-3-3-3-3-3-3-3-3-0-0-0-0-0-0-0-0-0-0-0-0-0-0--


When listening to the song, you know at this point you start over and 
basically play the same thing, except the feedback intro part. The non-muted
verse riff is only played twice this time though. Then when you get to the 
end of the guitar parts, you play this

e----------------------------------------------------------------------------
B----------------------------------------------------------------------------
G-7-7-7-7-7-7-7-7-7-7-7-7-7-7-7-7-7-7-7-7-7-7-7-7-7-7-7-7-7-7-7-7-7-7-7-7-7-7
D-0-0-----------------------------------------7-7-7-7-7-7-7-7-7-7-7-7-7-7-7-7
A-0-0-------------------------------------------------------0-0-0-0-0-0-0-0-0
D-0-0-------------------------------------------------------0-0-0-0-0-0-0-0-0
But just play the parts longer than what I wrote here.



e-----------------------------------
B-----------------------------------    Play
G-----------------------------------    this
D--5-5-3-3-0-0-3-3-5-5-3-3-0-0-3-3--     17
A--5-5-3-3-0-0-3-3-5-5-3-3-0-0-3-3--    times
D--5-5-3-3-0-0-3-3-5-5-3-3-0-0-3-3--


Now you can end the song with this last riff.

e-------------------
B-------------------
G-------------------
D--5-5-5-3-3-3-0-0--
A--5-5-5-3-3-3-0-0--
D--5-5-5-3-3-3-0-0--



Questions, comments, corrections, send to:
Scott Schuman *   or
Mike Schuman *
261 exibições

Comentários 0

Consegui tocarAinda não conseguiram tocar essa música. Seja o primeiro!
    Não consegui tocar
    Exibir acordes »
    publicidade
    fechar