Lorde

Royals

132.988 exibições
Tom: G
Afinação: a corda E deve ser afinada em D

Primeira Parte:


   D5
E|------------------------------------------|
B|-3--3--------3--3-----x-------------------|
G|-2--2--------2--2-----x-------------------|
D|-0--0-----x--0--0-----x----x--------------|
A|-------x------------x----x----------------|
D|-0-----x-----0------x---------------------|


                   D5
I've never seen a diamond in the flesh
          D5
I cut my teeth on wedding rings in the movies
              D5
And I'm not proud of my address
                D5
In the torn up town
             D5
No post code envy


Segunda Parte:

Parte 1:


   D5
E|------------------------------------------|
B|-3--3--------3--3-----x-------------------|
G|-2--2--------2--2-----x-------------------|
D|-0--0-----x--0--0-----x----x--------------|
A|-------x------------x----x----------------|
D|-0-----x-----0------x---------------------|


Parte 2:


   C9
E|------------------------------------------|
B|-3--3--------3--3-----x-------------------|
G|-0--0--------0--0-----x-------------------|
D|-0--0-----x--0--0-----x----x--------------|
A|-3-----x-----3------x----x----------------|
D|-------x------------x---------------------|


Parte 3:


   G5
E|------------------------------------------|
B|-3--3--------3--3-----x-------------------|
G|-0--0--------0--0-----x-------------------|
D|-0--0-----x--0--0-----x-------------------|
A|-------x------------x---------------------|
D|-5-----x-----5------x----3b---------------|


Parte 4 (apenas ao final):


   G5
E|------------------------------------------|
B|-3--3--------x----------------------------|
G|-0--0--------x----------------------------|
D|-0--0-----x--x----------------------------|
A|-------x----------------------------------|
D|-5-----x----------------------------------|



                       D5
But every song's like gold teeth, grey goose

Trippin' in the bathroom
  D5
Blood stains, ball gowns, trashin' the hotel room
 C9
We don't care
               G5
We're driving cadillacs in our dreams.
                       D5
But everybody's like cristal, maybach

Diamonds on your timepiece
 D5
Jet planes, islands, tigers on a gold leash
 C9
We don't care
           G5
We aren't caught up in your love affair


Refrão:

                    D5
And we'll never be royals

It don't run in our blood
              C9
That kind of lux just ain't for us
            G5
We crave a different kind of buzz
                D5
Let me be your ruler, you can call me queen bee
               C9
And baby I'll rule I'll rule I'll rule I'll rule
G5
  Let me live that fantasy



Repete a primeira Parte:
D5
  My friends and I we've cracked the code
              D5
We count our dollars on the train to the party
         D5
And everyone who knows us knows
                       D5
That we're fine with this
                     D5
We didn't come from money


Repete a Segunda Parte:

                       D5
But every song's like gold teeth, grey goose

Trippin' in the bathroom
  D5
Blood stains, ball gowns, trashin' the hotel room
 C9
We don't care
               G5
We're driving cadillacs in our dreams.
                       D5
But everybody's like cristal, maybach

Diamonds on your timepiece
 D5
Jet planes, islands, tigers on a gold leash
 C9
We don't care
           G5
We aren't caught up in your love affair


Repete o Refrão:

                    D5
And we'll never be royals

It don't run in our blood
              C9
That kind of lux just ain't for us
            G5
We crave a different kind of buzz
                D5
Let me be your ruler, you can call me queen bee
               C9
And baby I'll rule I'll rule I'll rule I'll rule
G5
  Let me live that fantasy


Terceira Parte:

D5
  Oooh ooooh ohhh
C9
  We're bigger than we ever dreamed
G5
  And I'm in love with being queen
D5
  Oooooh ooooh ohhhhh
C9
  Life is game without a care
           G5
We aren't caught up in your love affair


Repete o Refrão:

                   D5
And we'll never be royals

It don't run in our blood
              C9
That kind of lux just ain't for us
            G5
We crave a different kind of buzz
                D5
Let me be your ruler, you can call me queen bee
               C9
And baby I'll rule I'll rule I'll rule I'll rule
G5
  Let me live that fantasy
    Composição: Ella Yelich O'Connor / Joel LittleColaboração e revisão:
    • magrao15
    • Carolina
    • camilarolim
    • viniciusdepaula
    • Guilherme
    • +1

    Comentários 18

    140 .
    Exibindo 10 de 18 comentários Mostrar mais ver todos »
    140 cancelar

    conseguiu tocar?

    • Thais
    • Marcello
    • Gabriella
    • FelipeKF3
    • McCartney
    • heitor.faria
    • Rennoly
    • •••
    Joel2.656 visualizações
      ver covers de outras músicas »
      0:00 / 0:00

      Capítulos

        2 versões de Guitar Proformatodownloadscontribuição
        play/pausefechar subir/descer velocidade
        6ª corda E5ª corda A4ª corda D3ª corda G2ª corda B1ª corda E
          acordes
          publicidad
          fechar
          ok