Sentimental

Los Hermanos

 Los Hermanos
afinar o baixo mei tom abaixo (Eb Ab Db Gb)

intro piano...

"O quanto eu te falei..."   "Você me avisar..."
   F#  F#/F                     B    B/Bb B    B/bb          C#           F#
Gb--------------------------|------------------------------------------------|
Db--------------------------|------------------------------------------------|
Ab--------------------------|---------22~--33~---22~--33--33~--55~---55~-----|
Eb-33~-22~----33~--22~------|-2\88~--3----3-----3--------3----3------------33|

repete 1ºparte

"De tanto eu te falar..." ( a mesma coisa)

Refrão:
"ela é mais sentimental do que eu..."
  F#      F#/F    Em      Bb     B     B/Bb  B      C#     Ebm(durante o diálogo...)
Gb---------------------------------------------------------|-----------------|--------------------|-----------------|
Db---------------------------------------------------------|-----------------|--------------------|-----------------|
Ab------------------------2222~--3333~-2222~--3333~--5555~-|-----------------|-10-10~---10--11-11~|-----------------|
Eb-3333~--2222~---0000~---------------3--------------------|-7-0-7-----2-0-2-|--------10--10------|-7-0-7-----2-0-2-|       
                                                           tocar 3x           1x                   1x

Gb-------------------------------------------|--------------------------------------------|----|
Db---10-10~-10---------10-10~-10\12/10-------|---10-10~-10----------10-10~--10-10-10\12~--|12!-|
Ab---------10-10------------10---------------|---------10-10--------------10--------------|----|
Eb---------------7-7~------------------7-7~--|---------------7-7~-------------------------|----|

"Eu só aceito a condição de ter você só pra mim..."(mesma coisa)
Gb---------------------------------------------------------|
Db---------------------------------------------------------|
Ab------------------------2222~--3333~-2222~--3333~--5555~-|
Eb-3333~--2222~---0000~---------------3--------------------|

final
Gb-------------------------------------------------------|--------------------------------------------------------|
Db---10-10~-10---99~---------------10\12/10---99~--------|---10-10~-10---99~---------------10\12/10---99~---------|
Ab---------10-10--------10-------10---------------10-----|---------10-10--------10-------10-----------------------|
E-------------------------88~-----------------------88~--|-------------------------88~---------------------88~----|


_______________________________________________________
Contribuição: Leonardo(baixo_eletrico@ig.com.br)

Comentários 0

Composição: Biagio Antonacci / Cleveland / Jon Carin / N. Rodgers / Rouge
Esse não é o compositor? Avise-nos.
publicidade
fechar