Alma Gêmea

Loubet

 Loubet
Tom: G
		
Intro: G               (G F#m)   Em  (Em D)  C Am D


E|-3-2-0-3-2-0-3-2-0-3-2-3-3-2-3-3-2-3-2-0-0-0-0-0---0---------|
B|-3-3-3-3-3-3-3-3-3-3-3-5-5-3-5-5-3-5-3-1-1-0-1-1-1---3-1-1-|
G|------------------------------------------------------------|
D|------------------------------------------------------------|
A|------------------------------------------------------------|
E|------------------------------------------------------------|



E|-2-0---0-2-3-2-0---0-2-3-2|
B|-----3-----------3--------|
G|--------------------------|
D|--------------------------|
A|--------------------------|
E|--------------------------|



E|-------------------3-5---3|
B|------------1-0-0-1-------|
G|------0-2-4----2----------|
D|-0-2-4--------------------|
A|--------------------------|
E|--------------------------|


    G                       G F#m
Pra te entender eu já tentei de tudo
    Em
Achar seus pensamentos, eu já corri o mundo
    C                         Am
Mas não tem jeito, não tem explicação
    D
Por que você maltrata tanto o meu coração?

    G                                   G F#m
Dei o primeiro passo, esperando o passo seu
    Em
Mas você não me liga, não sei o que aconteceu
    C                          Am
Não quero te esquecer, mas já chega de sofrer
    D
Me fala de uma vez que você vai me pertencer

Refrão:

 G                                      G F#m
Eu quero que explore toda a alma do meu ser
    Em
Me leva pras alturas, me faz enlouquecer
C                  Am
Usa e abusa desse corpo que é só seu
    D
Você é tudo o que um dia eu pedi à Deus pra mim

G                                G F#m
Te conheci como se fosse um sonho
    Em
Senti que ali havia um sentimento estranho
C                      Am
Você me completou como eu te completei
    D
A minha alma gêmea finalmente eu encontrei

G                                   G F#m
Mas o que houve? Por que sumiu de mim?
    Em
Estou apaixonado, por favor não faz assim
C                      Am
Preciso de você, da noite ao amanhecer
    D
Sem os seus carinhos não consigo mais viver

Refrão mais 2X
73.791 exibições

Comentários 5

  • Guilherme Guilherme: Postado em 15/11/2014 16:48

    alguem sabe o ritmo?

  • Luana Luana: Postado em 02/11/2014 11:41

    Consegui Tocar Mais a minha Maior Dificuldade e Tocar a Nota F#m... Ai eu toco sem ela!!
    Alguem pode me ensinar a fazer ela de um jeito fac

  • Wesley Wesley: Postado em 01/08/2013 21:39

    Alguem coloca o solo

  • o.o.monah.o.o o.o.monah.o.o: Postado em 04/07/2013 16:54

    cade a tablatura???

  • mialmeida mialmeida: Postado em 02/07/2013 21:06

    linda a letra e a melodia

Composição: Sabe quem é o compositor? Envie pra gente. Contribuição: teusao_violeiro Correções: sidne e mais 2 »
Exibir acordes »
publicidade
fechar