Seu Retrato

Loubet

 Loubet
Tom: G
		
Intro: G C9 Em D (2X)


E|-------------------------------
A|-------------------------------
D|--3s5-5-5-5-5------------------
G|---------4-4------------------0
B|------------1s3-3-3-0-3-3s5----
E|-------------------------------



E|-------------------------------
A|-------------------------------
D|-3s5---------------------------
G|-----4-4p2-2-2-0-2-2h4-4-------
B|-------------------------------
E|-------------------------------



E|-------------------------------
A|-------------------------------
D|--3s5-5-5-5-5------------------
G|---------4-4------------------0
B|------------1s3-3-3-0-3-3s5----
E|-------------------------------



E|-------------------------------
A|-------------------------------
D|-3s5------------0h2-5----------
G|-----4-4p2-0-2-----------------
B|-------------------------------
E|-------------------------------


G        C9             G              C9            B-7 (h)
Pode ir, ficarei aqui, sei que a porta vai se abrir  E-7 (h)
G          C9                    G              C9
Tanto faz se foi guerra ou paz, o importante é ser feliz
Em                 C9         Em                     C9
Coisa que você não era mais, sonhos que você já não sonhou
Em                  C9         Em                   D
Todo nosso encanto se desfaz, feche a porta, tudo acabou

Refrão:
G                C9                   Em             D             G
Não quero seu retrato pra não me lembrar de tudo que a gente passou
G             C9             Em           C9         Em                 D
Apague o meu número do celular pra não cair em tentação no momento de solidão
G
Acabou

(G C9 Em D)(2X)

G        C9                 G           C9
Pode ir, tudo acaba assim, você sai sem me ouvir
G          C9                G          C9
Nunca mais tirarei sua paz, pode voltar a sorrir
Em                        C9    Em                   C9
Não se esqueça que você jamais soube dar valor ao meu amor
Em                  C9          Em               D
Toda nossa história se desfaz, como uma árvore, secou

Refrão:
G                C9                   Em             D             G
Não quero seu retrato pra não me lembrar de tudo que a gente passou
G             C9             Em           C9         Em                 D
Apague o meu número do celular pra não cair em tentação no momento de solidão

G                C9                   Em             D             G
Não quero seu retrato pra não me lembrar de tudo que a gente passou
G             C9             Em           C9         Em                 D
Apague o meu número do celular pra não cair em tentação no momento de solidão

G
Acabou

(G C9 Em D G)
13.567 exibições

Comentários 0

Composição: Sabe quem é o compositor? Envie pra gente. Contribuição: Diego Correções: Jeaan e mais 1 »
Exibir acordes »
publicidade
fechar