Franguinho na Panela

Lourenço e Lourival

 Lourenço e Lourival
Tom: A
		
Versão 1:

E|-0-2-4-7-4-2-5-2-0-------|
B|-------------------2-----|
G|----------------------2--|
D|-------------------------|
A|-------------------------|
E|-------------------------|



E|-0-2-4-2-0---------------|
B|------------3-2-0--------|
G|-------------------3-----|
D|-------------------------|
A|-------------------------|
E|-------------------------|


Versão 2:

E|------4-7-4-----5-----------|
B|-5-7---------7----7-5-------|
G|-----------------------6----|
D|--------------------------7-|
A|----------------------------|
E|----------------------------|



E|------4-------------------5-|
B|-5-7----7-5-------------5---|
G|------------7-6-4-----6-----|
D|------------------7---------|
A|----------------------------|
E|----------------------------|


Intro: A  E  A  E  A ( E  A )

 A                                     E
No recanto onde moro é uma linda passarela
                                       A
O carijó canta cedo, bem pertinho da janela
                                      E
Eu levanto quando bate o sininho da capela
  D                             A
E lá vou eu pro roçado, tenho Deus de sentinela
                  E                      A
Têm dia que meu almoço, é um pão com mortadela
     A7            D          Bm           E
Mais lá no meu ranchinho a mulher e os filhinhos
                    A
Tem franguinho na panela
A                                                E
Eu tenho um burrinho preto bão de arado e bão de sela
                                           A
Pro leitinho das crianças, a vaquinha Cinderela
                                    E
Galinha tá no terreiro papagaio tagarela
   D                           A
Eu ando de qualquer jeito, de butina ou de chinela
                    E                       A
Se na roça a fome aperta, vou apertando a fivela
     A7            D          Bm           E
Mais lá no meu ranchinho a mulher e os filhinhos
                    A
Tem franguinho na panela
A                                            E
Quando eu fico sem serviço a tristeza me atropela
                                             A
Eu pego um bico pra fora, deixo cedo a corruptela
                                         E
Eu levo meu viradinho é um fundinho de tigela
  D                           A
É só farinha com ovo, mas da gema bem amarela
               E                         A
É esse o meu almoço, que desce seco na goela
     A7            D          Bm           E
Mais lá no meu ranchinho a mulher e os filhinhos
                    A
Tem franguinho na panela
A                                           E
Minha mulher é um doce e diz que sou o doce dela
                                               A
Ela faz tudo pra mim, tudo o que eu faço é pra ela
                                              E
Não vestimo lã nem linho é no algodão e na flanela
   D                                   A
É assim a nossa vida, que levamos na cautela
                          E                          A
Se eu morrer Deus dá um jeito, mais a vida é muito bela
    A7                D            Bm           E
Não vai faltar no ranchinho pra mulher e os filhinhos
                    A
Um franguinho na panela.
72.524 exibições

Comentários 1

Composição: Moacyr Dos Santos e Paraiso
Esse não é o compositor? Avise-nos.
Contribuição: Alaercio Correções: mackie1964 e mais 1 »
Exibir acordes »
publicidade
fechar