Sem Radar (Acústico)

LS Jack

 LS Jack
Tom: F#
		
(intro)


       F#                   C#                     D#m
E|--------------------|--------------------|--------------------|
B|--------------------|--------------------|--------------------|
G|---------6----------|---------6----------|---------8----------|
D|--4--6-------6------|-----6-------6------|-----8-------8------|
A|--------------------|--8-----------------|--6-----------------|
E|--------------------|--------------------|--------------------|



       A#                       B
E|--------------------|--------------------|
B|------------6-------|--7--------------7~-|
G|--7-----8-----------|--------------------|
D|----8-----8---------|-----9------9-------|
A|------8---------8~--|--------9-----------|
E|--------------------|--------------------|


       F#                   C#
E|--------------------|--------------------|
B|--------------------|--------------------|
G|---------6----------|---------6----------|
D|--4--6-------6------|-----6-------6------|
A|--------------------|--8-----------------|
E|--------------------|--------------------|


(música segue com esse riff junto da batida do violão)

F#      C#   D#m             A#m      B
É só me recompor, mas eu não sei quem sou
   F#               C#
Me falta um pedaço teu
F#      C#  D#m              A#m    B
Preciso me achar, mas em qualquer lugar estou
  F#            C#     E
Rodando sem direção eu vou
F#       C#   D#m           A#m  B
Morcego sem radar, voando a procurar
     F#              C#
Quem sabe um indício teu
F#        C#   D#m            A#m     B
Queimando toda fé, seja o que Deus quiser eu sei
               F#    C#    E
Que amargo é o mundo sem você

F#        C#   D#m       A#m B
Você me entorpeceu e desapareceu
      F#        C#
Vou ficando sem ar
F#      C#      D#m            A#m B
O mundo me esqueceu, meu sol escureceu
      G#m       A#m
Vou ficando sem ar
     B      C#
Esperando você voltar

(riff intro 2x) F#  D#m  B  C#

F#      C#   D#m             A#m      B
É só me recompor, mas eu não sei quem sou
   F#               C#
Me falta um pedaço teu
F#        C#   D#m            A#m     B
Queimando toda fé, seja o que Deus quiser eu sei
               F#    C#    E
Que amargo é o mundo sem você
F#        C#   D#m       A#m B
Você me entorpeceu e desapareceu
      F#        C#
Vou ficando sem ar
F#      C#      D#m            A#m B
O mundo me esqueceu, meu sol escureceu
      G#m       A#m
Vou ficando sem ar
    B9      C#
Esperando você...
     G#m                                          A#m
Escrevendo minha própria lei, desesperadamente eu sei
   B                              C#
Tentando aliviar, tentando não chorar
    G#m                           A#m                    B
Por mais que eu tente esquecer, memórias vem me enlouquecer
G#m       C#       E
Minha sentença é você

(riff intro 2x) F#  D#m  B  C#

F#        C#   D#m       A#m B
Você me entorpeceu e desapareceu
      F#        C#
Vou ficando sem ar
F#      C#      D#m            A#m B
O mundo me esqueceu, meu sol escureceu
      G#m       A#m
Vou ficando sem ar
     B      C#
Esperando você voltar

( F#   C#    A#m   B ) (2x)

(solo final)

E|----14-14-14-11--7s9----11-9-----14-14-14-11--7s9----11--5s7-----|
B|----14-14-14-11--7s9--9----9-----14-14-14-11--7s9--9-----5s7-----|
G|-----------------------------------------------------------------|
D|-----------------------------------------------------------------|
A|-----------------------------------------------------------------|
E|-----------------------------------------------------------------|


F# (deixa tocar)
Texto Colunas
Alterar tom ½ tom ½ tom
afinação acordes na letra esconder tabs mais »
838.027 exibições

Comentários (6)

  • Kainã Kainã: Postado em 21/10/2013 11:41

    Merece uma video-aula 2

  • walacymu walacymu: Postado em 11/02/2013 13:06

    Merece uma vídeo-aula com certeza!!

  • anderson7guitar anderson7guitar: Postado em 15/08/2012 20:38

    As mina pira qnd eu toco essa musica.

  • rogeriojose rogeriojose: Postado em 20/07/2012 17:26

    música é lenda

  • theusw16 theusw16: Postado em 28/12/2011 22:03

    musica muito booa!

  • SerginhoMiliati SerginhoMiliati: Postado em 27/04/2011 14:37

    Musica Show! ^^

Composição: Sabe quem é o compositor? Envie pra gente. Contribuição: Planet Correções: JUNIOR PAIVA , chetnies e mais 3 »
  1. Tudo Que Você Quiser - Luan Santana Manteve-se 5.838 exibições
  2. Lepo Lepo - Psirico Manteve-se 4.258 exibições
  3. Mozão - Lucas Lucco Manteve-se 4.092 exibições
  4. Logo Eu - Jorge e Mateus Manteve-se 3.677 exibições
  5. Gaveta - Fernando e Sorocaba Manteve-se 3.251 exibições
  6. Só Os Loucos Sabem - Charlie Brown Jr. Manteve-se 2.945 exibições
  7. Pra Você - Onze:20 Manteve-se 2.783 exibições
  8. Tempo Perdido - Legião Urbana Manteve-se 2.356 exibições
  9. Fui Fiel - Gusttavo Lima Manteve-se 2.236 exibições
  10. Na Linha do Tempo - Victor e Leo Manteve-se 2.111 exibições
  1. Jorge e Mateus- Manteve-se 22.167 exibições
  2. Legião Urbana- Manteve-se 19.327 exibições
  3. Luan Santana- Manteve-se 17.248 exibições
  4. Charlie Brown Jr.- Manteve-se 16.750 exibições
  5. Fernandinho- Manteve-se 14.218 exibições
  6. Thalles Roberto- Manteve-se 10.904 exibições
  7. Católicas- Manteve-se 10.314 exibições
  8. Aline Barros- Manteve-se 10.062 exibições
  9. Victor e Leo- Manteve-se 10.039 exibições
  10. Gusttavo Lima- Manteve-se 9.893 exibições
Exibir acordes »

Cifras e tabs

Fórum Cifra Club

Aprenda

Cifra Club News

Mais Serviços Cifra Club ID

Studio Sol

©1996 - 2014 Cifra Club · o primeiro, maior e mais acessado do Brasil · 329 mil músicas · 5.9 milhões pessoas cadastradas

publicidade
fechar