Uma Carta

LS Jack

 LS Jack
Tom: C
		
(intro) E D A E


E|-12-12-12-10-10-10-9-9-9-7-7-7-5-6-7-7-7-5-6-7-7-7-9-7-5-6-7-7-7-6-5-0-|



E|-10-9-7----12-12-10-9-7----12-12-10-9-7----12-12-10-10-10-9-|
B|--------10--------------10--------------10------------------|



                                           |(guitarra)      |
E|-7---7-9/10-10-10-9-7---7-9/10-10-10-9-7-|-14/13----------|-----7-9/10-9-7-14-12-10-9-10-9|
B|---9------------------9------------------|-------14/13----|-7-9---------------------------|
G|-----------------------------------------|-------------13-|-------------------------------|



E|----10-12/9-10/7-7-5-7-5-7-5-7-5-4/5-4-2-0|
B|-12---------------------------------------|


E                                 A
Quando eu canto, seu coração se abala
                               E
Pois eu sou porta-voz da incoerência

(riff 1)

E|------9-10-9----14-12-10-9-10-9------|
B|-9-12--------12-----------------12-9-|


E                            A
Desprezando seu gesto de clemência
                                  E
Sei que o meu pensamento lhe atrapalha

(riff 2)

E|------9-10-9------|
B|-9-12--------12-9-|


E                           A
Cego o sol seu cavalo de batalha
                            E   (riff 2)
Faço a lua brilhar no meio-dia
E                                 A
Tempestade eu transformo em calmaria
                          G
Dou um beijo no fio da navalha
        D                   A
Pra dançar e cair nas suas malhas
                  B           E
Gargalhando e sorrindo de agonia


     E                                    Bb B  Bb B
E|------9-10-10-10-9---------10-10-10-9---------------|
B|-9-12--------------12-9-12------------12-11-12-11-12| (2x)



                    D  A   E
E|------9-10-9----14-12-10-|
B|-9-12--------12----------|


E                            A
Se acaso eu chorar não se espante
                                   E    (riff 1)
O meu riso e o meu choro não têm planos
E                              A
Eu canto a dor, o amor, o desengano
                             E    (riff 2)
E a tristeza infinita dos amantes
E                          A
Dom Quixote liberto de Cervantes
                             E    (riff 2)
Descobri que os moinhos são reais
E                          A
Entre feras, corujas e chacais
                         G
Viro pedra no meio do caminho
       D                 A
Viro rosa, vereda de espinhos
                 B          E
Incendeio esses tempos glaciais

 (solo sobre E )

                                           |(guitarra)      |
E|-7---7-9/10-10-10-9-7---7-9/10-10-10-9-7-|-14/13----------|-----7-9/10-9-7-14-12-10-9-10-9|
B|---9------------------9------------------|-------14/13----|-7-9---------------------------|
G|-----------------------------------------|-------------13-|-------------------------------|



E|----10-12/9-10/7-7-5-7-5-7-5-7-5-4/5-4-2-0|
B|-12---------------------------------------|


(repete segundo verso)
Texto Colunas
Alterar tom ½ tom ½ tom
afinação acordes na letra esconder tabs mais »

Comentários 16

  • luan.ribas.3 luan.ribas.3: Postado em 26/11/2013 13:35

    sem comentários

  • alex_maues alex_maues: Postado em 18/01/2013 22:39

    Ei acho que não é essa música, a da versão 2 que está certa

  • rafinha_freitas rafinha_freitas: Postado em 20/09/2012 17:52

    Uma música tão boa, e tão desorganizada.

  • fefezacarias fefezacarias: Postado em 28/07/2012 00:38

    em respeito a banda!!

  • fefezacarias fefezacarias: Postado em 28/07/2012 00:38

    aee muito bom o site de vocês então mas só por não estar tão na mídia não dão mais atenção as músicas do ls jack?
    por favor arrumem isso..

  • nickolas. nickolas.: Postado em 06/04/2012 13:38

    ????????

  • darcksite darcksite: Postado em 21/12/2011 18:03

    o galera o cifra.. arruma isso ae

  • nosineg nosineg: Postado em 06/12/2011 18:47

    alguem pode me dizer oque está acontecendo aqui? '-'

  • kleitonnonato kleitonnonato: Postado em 14/10/2011 20:16

    Qual é a batida?

  • Akaos Akaos: Postado em 09/07/2011 00:09

    Arruma esse trem !!!

Exibindo 10 de 16 comentários Mostrar mais ver todos »
Composição: Ls Jack
Esse não é o compositor? Avise-nos.
Contribuição: Klauss Correções: Thyerre , musicboy e mais 3 »
Consegui tocarAinda não conseguiram tocar essa música. Seja o primeiro!
    Não consegui tocar
    1. Domingo de Manhã - Marcos e Belutti Manteve-se 96.264 exibições
    2. Até Você Voltar - Henrique e Juliano Manteve-se 55.457 exibições
    3. Pra Você - Onze:20 Manteve-se 48.991 exibições
    4. Recaídas - Henrique e Juliano Manteve-se 41.756 exibições
    5. Logo Eu - Jorge e Mateus Manteve-se 40.010 exibições
    6. Evidências - Chitãozinho & Xororó Manteve-se 35.919 exibições
    7. Só Os Loucos Sabem - Charlie Brown Jr. Manteve-se 31.813 exibições
    8. Cuida Bem Dela - Henrique e Juliano Manteve-se 31.163 exibições
    9. Pais e Filhos - Legião Urbana Manteve-se 29.531 exibições
    10. Give Me Love - Ed Sheeran Manteve-se 29.506 exibições
    1. Jorge e Mateus- Manteve-se 251.571 exibições
    2. Legião Urbana- Manteve-se 211.240 exibições
    3. Henrique e Juliano- Manteve-se 192.369 exibições
    4. Charlie Brown Jr.- Manteve-se 151.943 exibições
    5. Bruno e Marrone- Manteve-se 133.779 exibições
    6. Fernandinho- Manteve-se 118.729 exibições
    7. Marcos e Belutti- Manteve-se 117.826 exibições
    8. Luan Santana- Manteve-se 111.298 exibições
    9. Thalles Roberto- Manteve-se 93.703 exibições
    10. Victor e Leo- Manteve-se 91.274 exibições
    Exibir acordes »

    Cifras e tabs

    Fórum Cifra Club

    Aprenda

    Cifra Club News

    Mais Serviços Cifra Club ID

    Studio Sol

    ©1996 - 2014 Cifra Club · o primeiro, maior e mais acessado do Brasil · 338 mil músicas · 6.2 milhões pessoas cadastradas

    publicidade
    fechar