Quatro Semanas de Amor

Luan e Vanessa

 Luan e Vanessa
Tom: C
		
(intro) Em D7 Em D7 Em


E |----12-------------12-14h15-14-10-12-
B |-12----15-13-12-13-------------------
G |-------------------------------------
D |-------------------------------------
A |-------------------------------------
E |-------------------------------------


Em                 A Am      Em
Foi um sonho de verão, numa praia
Am        D7        G
Quatro semanas de amor
    E7        Am   D7    B7            Em Am D7  Em
Em noites de luar, sob a luz das estrelas,  eu e você
                    A Am     Em
O seu nome eu escrevi   na areia
  Am      D7      G
A onda do mar apagou
   E7          Am  D7     B7          Em Am D7       Em
Em cada pôr de sol, a saudade incendeia,    meu coração
   A              Em
Te amo, não me esqueça
   A            Em
O sonho não acabou
   A                 Em
Eu vou ficar te esperando
     F#7           B7
Não quero dizer adeus
      A            Am         Em
Sem você eu vou ficar tão sozinho
 Am         D7       G
Quando o inverno chegar
      E7            Am  D7            Em    Am D7      Em  D Em
Mas quando o sol nascer,  vai ser tão lindo,    eu e você

(solo base) A Am Em Am D G E Am D B Em Am D Em Fm


E |--------------------------------8-8----10-10-5-7----12-10-------------10----------------12-12-14-15-17~-12-14h15-14-10-12-13
B |-5-5-8-8-12-12-10~-8-7-7h8-5-10-----10-----------12-------13-12-13-10----13-12-10-12-12-------------------------------------
G |----------------------------------------------------------------------------------------------------------------------------
D |----------------------------------------------------------------------------------------------------------------------------
A |----------------------------------------------------------------------------------------------------------------------------
E |----------------------------------------------------------------------------------------------------------------------------


    Bb  Bbm      Fm
O seu nome eu escrevi na areia
    Bbm     Eb7     G#
A onda do mar apagou
    F7          Bbm  Eb7    C7          Fm Bbm  Eb7      Fm
Em cada pôr de sol, a saudade incendeia,    meu coração
     Bb            Fm
Te amo, não me esqueça

  Bb            Fm
O sonho não acabou
    Bb               Fm
Eu vou ficar te esperando
      G7          C7
Não quero dizer adeus
       Bb           Bbm        Fm
Sem você eu vou ficar tão sozinho
   Bbm       Eb7      G#
Quando o inverno chegar
     F7                Bbm  Eb7        C7  Fm  Bbm
Mas quando o sol nascer,  vai ser tão lindo
Eb7     Fm Bbm  Eb7     Fm Bbm  Eb7      F
Eu e você,    Eu e você,     Eu e você.
108.466 exibições

Comentários 0

Composição: Luan & Vanessa
Esse não é o compositor? Avise-nos.
Contribuição: Alexsander Correções: DagØ »
Exibir acordes »
publicidade
fechar