Apaixonado/A Loira do Carro Branco

Luan Santana

 Luan Santana
Tom: D
		
(intro 2x)  A   E D A  Bm  E


E|------6-4-4/7-5-5-9-7-10-9----|
B|------------------------------|
G|--5-5-6-4-4/7-6-6-9-7-11-9----|
D|--6-6-------------------------|
A|------------------------------|
E|------------------------------|



E|-9-9-10-9-------9--------9-------------------10/14-14-12-|
B|----------12-10--12-10-9--12-10-9-12-10-9----------------|
G|------------------------------------------11-10/14-14-13-|
D|---------------------------------------------------------|
A|---------------------------------------------------------|
E|---------------------------------------------------------|



E|-12-12-12-12-12-10-9/10--10-10-10-12-10-9-|
B|------------------------------------------|
G|-13-13-13-13-13-11-10/11-11-11-11-13-11-9-|
D|------------------------------------------|
A|------------------------------------------|
E|------------------------------------------|



E|-5-9-14-12-12-10-10-9-9-7-7-5--5-7-9-|
B|-------------------------------------|
G|-6-9-14-13-13-11-11-9-9-7-7-6--6-7-9-|
D|-------------------------------------|
A|-------------------------------------|
E|-------------------------------------|


A
Moreninha linda se tu soubesses
                           E
O quanto padece quem tem amor
         D                  A
Talvez tu farias o que faz agora
           E          A
Quem te adora não tem valor
           E                 D
Não vivo sem ti, sem ti não sei viver,
              E            D               A
Se eu perder seus beijos juro querida que vou morrer
              E                D
Vou sofrer por ti, por ti vou sofrer
              E                        A
Se for meu destino apaixonado quero morrer

E|------6-4-4/7-5-5-9-7-10-9----|
B|------------------------------|
G|--5-5-6-4-4/7-6-6-9-7-11-9----|
D|--6-6-------------------------|
A|------------------------------|
E|------------------------------|



E|-9-9-10-9-------9--------9-------------------10/14-14-12-|
B|----------12-10--12-10-9--12-10-9-12-10-9----------------|
G|------------------------------------------11-10/14-14-13-|
D|---------------------------------------------------------|
A|---------------------------------------------------------|
E|---------------------------------------------------------|



E|-12-12-12-12-12-10-9/10--10-10-10-12-10-9-|
B|------------------------------------------|
G|-13-13-13-13-13-11-10/11-11-11-11-13-11-9-|
D|------------------------------------------|
A|------------------------------------------|
E|------------------------------------------|



E|-5-9-14-12-12-10-10-9-9-7-7-5---5--7-9-10|
B|-----------------------------------------|
G|-6-9-14-13-13-11-11-9-9-7-7-6--1/6-7-9-11|
D|-----------------------------------------|
A|-----------------------------------------|
E|-----------------------------------------|


(base) A  E  D  A

D                                  A
Viajando solitário mergulhado na tristeza
                                      D
Numa curva da estrada eu tive uma surpresa
                                     A
Uma loira encantadora bonita por natureza
                                    ( D )
Me pediu uma carona eu atendi com destreza
                        D                  A
Sentou bem pertinho de mim com muita delicadeza
                  A7      G                 D       A           D       A   D
O meu carro foi o trono, eu passei a ser o dono da rainha da beleza

   D                                      A
Foi o dia mais feliz que o meu coração sentiu
                                        D
Mas meu mundo encantado de repente destruiu
                                          A
Ao ver a loira tremendo, gemendo e suando frio
                                          (D)
Parei o carro depressa na travessia de um rio
                         D                           A
Enquanto eu fui buscar a água, que tão triste ela pediu
                A7     G           D     A                   D      A   D   A   D
Ouvi cantar os pneus e me dizendo adeus com meu carro ela sumiu

E|-10-10-9-9-9-7-7-5-|
B|-------------------|
G|-11-11-9-9-9-7-7-6-|
D|-------------------|
A|-------------------|
E|-------------------|



E|-9-9-7-7-7-3-3-2-|
B|-----------------|
G|-9-9-7-7-7-4-4-2-|
D|-----------------|
A|-----------------|
E|-----------------|



E|-7-7-3-3-3-2-2-0-|
B|-----------------|
G|-7-7-4-4-4-2-2-1-|
D|-----------------|
A|-----------------|
E|-----------------|



E|-1/5-5-5-5-9-12-10-|
B|-------------------|
G|-2/6-6-6-6-9-13-11-|
D|-------------------|
A|-------------------|
E|-------------------|


  D                                       A
Somente um bilhetinho na estrada eu encontrei
                                        D
Quando eu acabei de ler, emocionado eu fiquei
                                      A
No bilhete ela dizia, por você me apaixonei
                                         (D)
Só peço que me perdoe, o golpe que eu lhe dei
                      D                      A
Para alimentar a esperança o carro eu levarei
                 A7     G                 D    A              D      A   D
Me perdoe por favor, quando me der seu amor o carro eu entregarei

  D                                    A
Quem estiver me ouvindo preste muita atenção
                                            D
O meu carro não tem placa mas vou dar a descrição
                                         A
É branco e tem uma loira charmosa na direção
                                       ( D )
Dou o carro de presente pra quem fizer a prisão
                       D                  A
Por ela ter roubado o carro já tem absolvição
                       A7      G                D
Mas lhe darei um castigo vai ter que viver comigo,
    A               D
Por roubar meu coração.
Texto Colunas
Alterar tom ½ tom ½ tom
afinação acordes na letra esconder tabs mais »
297.949 exibições

Comentários 34

  • deivid.venancio.5 deivid.venancio.5: Postado em 11/05/2014 20:47

    alguem sabe qual a batida?

    • Joyce Joyce : Postado em 12/08/2014 20:50

      eu toco em guarania '-'

  • deivid.venancio.5 deivid.venancio.5: Postado em 11/05/2014 12:01

    falta uma video aula dessa musica hein cifra

  • Lucas Lucas: Postado em 07/04/2014 15:07

    como faz o solinho?:

  • vinicius vinicius: Postado em 09/03/2014 17:28

    coloquem a video aula dessa musica

  • brunobritto16 brunobritto16: Postado em 18/02/2014 21:54

    watch?v=8mfO2S5nFII vejam meu cover galera! É só colocar na na frente do link do youtube! Abraço!

  • cecilio13gabi cecilio13gabi: Postado em 04/06/2013 16:23

    o solo dessa música pode - se tocar no violão ou apenas com viola ? podia ter video aula, olha a penca de solos que tem taloko

  • leo_p_brito leo_p_brito: Postado em 26/07/2012 13:02

    uma video aula ficaria massa

  • biiaramos biiaramos: Postado em 17/06/2012 20:05

    essa musica é de viola ;/

Exibindo 10 de 34 comentários Mostrar mais ver todos »
Composição: Sabe quem é o compositor? Envie pra gente. Contribuição: felpis Correções: Bruno , Júh e mais 2 »
  1. Domingo de Manhã - Marcos e Belutti Manteve-se 101.371 exibições
  2. Pra Você - Onze:20 Manteve-se 48.976 exibições
  3. Até Você Voltar - Henrique e Juliano Manteve-se 46.862 exibições
  4. Logo Eu - Jorge e Mateus Manteve-se 44.593 exibições
  5. Recaídas - Henrique e Juliano Manteve-se 41.851 exibições
  6. Evidências - Chitãozinho & Xororó Manteve-se 37.943 exibições
  7. Só Os Loucos Sabem - Charlie Brown Jr. Manteve-se 32.044 exibições
  8. Give Me Love - Ed Sheeran Manteve-se 29.285 exibições
  9. Pais e Filhos - Legião Urbana Manteve-se 29.272 exibições
  10. Aonde Quer Que Eu Vá - Os Paralamas do Sucesso Manteve-se 26.762 exibições
  1. Jorge e Mateus- Manteve-se 261.777 exibições
  2. Legião Urbana- Manteve-se 207.557 exibições
  3. Henrique e Juliano- Manteve-se 176.963 exibições
  4. Charlie Brown Jr.- Manteve-se 152.400 exibições
  5. Bruno e Marrone- Manteve-se 129.965 exibições
  6. Marcos e Belutti- Manteve-se 124.036 exibições
  7. Fernandinho- Manteve-se 118.701 exibições
  8. Luan Santana- Manteve-se 107.740 exibições
  9. Thalles Roberto- Manteve-se 94.281 exibições
  10. Victor e Leo- Manteve-se 92.300 exibições
Exibir acordes »

Cifras e tabs

Fórum Cifra Club

Aprenda

Cifra Club News

Mais Serviços Cifra Club ID

Studio Sol

©1996 - 2014 Cifra Club · o primeiro, maior e mais acessado do Brasil · 337 mil músicas · 6.2 milhões pessoas cadastradas

publicidade
fechar