Canção do Amigo

Ludmila Ferber

 Ludmila Ferber
Tom: C
		
Intro:


E|------------------------------------------------------|
B|-8-8/10-------8-8/10-------8-8/10--------8-8/10-------|
G|-------9-7-5---------9-7-5--------9-7-5---------9-7-5-|
D|------------------------------------------------------|
A|------------------------------------------------------|
E|------------------------------------------------------|



E|----------8~---------10~--------8~---------10~--------|
B|--5-5/7-9----5-5/7-9----5-5/7-9----5-5/7-9------------|
G|------------------------------------------------------|
D|------------------------------------------------------|
A|------------------------------------------------------|
E|------------------------------------------------------|


C         F           C
Se precisar de um amigo,
C         F            C
Olha pra dentro de mim
F             Am
Podes errar e magoar,
       Dm                    G
Mas estou aqui, pra te ajudar
       F        G       C
Sou teu amigo até o fim

C        F      C
O verdadeiro amigo
C         F           C
Sabe o valor do perdão
F               Am
Porque amar e perdoar
Dm                          G
São da mesma essência e raiz
           F      G          C
Vêm das fontes eternas de Deus.

      F           C/E      Am
Amigo se faz em tempo de paz,
            Bb                         G
Mas na angústia é que se prova o seu amor
   F            C/E       Am
Amigo se é na glória e na dor
           F     Am       G
Quem é amigo, suporta e crê
          F         G         C
Quem é amigo é fiel até o fim.
 C       F            C
Se precisar de um amigo...
51.132 exibições

Comentários 0

Composição: Ludmila Ferber
Esse não é o compositor? Avise-nos.
Contribuição: heavy Correções: walisonvitor e mais 1 »
Exibir acordes »
publicidade
fechar