9ª Sinfonia

Ludwig Van Beethoven

 Ludwig Van Beethoven Compositor: Beethoven
Tom: C
		

E|-0-0-1-3-3-1-0-----------0-0-------------------------
B|---------------3--1-1-3------3-3---------------------
G|-----------------------------------------------------
D|-----------------------------------------------------
A|-----------------------------------------------------
E|-----------------------------------------------------



E|-0-0-1-3-3-1-0------------0--------------------------
B|----------------3--1-1-3------3--1-1-----------------
G|-----------------------------------------------------
D|-----------------------------------------------------
A|-----------------------------------------------------
E|-----------------------------------------------------



E|-----0------0--1--0-------0-1-0----------------------
B|-3-3---1--3---------1--3--------3--1--3--------------
G|----------------------------------------0------------
D|-----------------------------------------------------
A|-----------------------------------------------------
E|-----------------------------------------------------

Comentários 8

  • Laís Laís: Postado em 10/11/2013 21:16

    hino da alegria é também o nome da música

  • maria clara maria clara: Postado em 17/08/2013 21:08

    amei vivo sumindo com as partituras que o professor me da!

  • Happy Happy: Postado em 15/03/2013 22:15

    Tá certo...

    • Leia Leia: Postado em 09/08/2013 15:16

      alguem sabe ond encontrar 'cifras' no pentagrama? P tocar assim terei q aprender as letras, tenho mais abilidade em conheçer as notas. Valeu

  • matheusegabi matheusegabi: Postado em 15/02/2013 12:19

    tá errado

    • Matheus Matheus: Postado em 03/08/2013 17:27

      errado nada, tá certinho.

  • injured injured: Postado em 15/11/2012 01:05

    :/

  • gdjonas30stm gdjonas30stm: Postado em 04/09/2011 18:54

    muito legal !! Amo musica classica

Composição: Sabe quem é o compositor? Envie pra gente. Contribuição: Raiden Correções: nandox3 , felipecefan e mais 5 »
Exibir acordes »
publicidade
fechar