Asa Branca

Luiz Gonzaga

 Luiz Gonzaga
Tom: C
		

E|-3---1---0------------------------3----------|
B|-0-----3---1-3-0-1---0------------0----------|
G|-0-----------------2---0-2-0---0--0----------|
D|-0---------------------------2----0----------|
A|-2--------------------------------2----------|
E|-3--------------------------------3----------|



E|-------------------------------------|
B|-----0---3-3-0-1---1-----0-3-3-1-0---|
G|-0-2-----------------0-2-------------|
D|-------------------------------------|
A|-------------------------------------|
E|-------------------------------------|



E|----------------------------------------------|
B|-------0-3----3-1-0--1--1-1-0---0-------------|
G|-0-0-2-------------0----------2---------2-2-0-|
D|----------------------------------------------|
A|----------------------------------------------|
E|----------------------------------------------|
26.115 exibições

Comentários 0

Composição: Humberto Teixeira / Luiz Gonzaga
Esse não é o compositor? Avise-nos.
Contribuição: larih.machado Correções: teteurv10 e mais 1 »
Exibir acordes »
publicidade
fechar