Asa Branca

Luiz Gonzaga

 Luiz Gonzaga Compositor: Humberto Teixeira / Luiz Gonzaga
Tom: E
		

E|---1---0----------------------------------|
B|-----3---1-3-0-1---0----------------------|
G|-----------------2---0-2-0---0-0----------|
D|---------------------------2--------------|
A|------------------------------------------|
E|------------------------------------------|



E|---1---0----------------------------------|
B|-----3---1-3-0-1---0----------------------|
G|-----------------2---0-2-0---0-0----------|
D|---------------------------2--------------|
A|------------------------------------------|
E|------------------------------------------|



        E              A
Quando oiei a terra ardendo
     E       B7         E
Qual fogueira de São João
      E7                A
Eu perguntei a Deus do céu, ai
          B7          E
Por quê tamanha judiação
                    A
Que braseiro, que fornaia
       E       B7   E
Nem um pé de prantação
                         A
Por farta d'água perdi meu gado
          B7           E
Morreu de sede, meu alazão
      E             A
Inté mesmo a asa branca
     E     B7      E
Bateu asas do sertão
                         A
Entonce eu disse, adeus Rosinha
          B7         E
Guarda contigo meu coração
                A
Hoje longe muitas léguas
   E      B7    E
Numa triste solidão
                    A
Espero a chuva cair de novo
        B7              E
Pra mim vortá pro meu sertão
                         A
Quando o verde dos teus óio
    E        B7    E
Se espaiá na prantação
        E7                  A
Eu te asseguro, num chore não, viu?
     B7                      E
Que eu vortarei, viu, meu coração



E|----------------------------------------------------------
B|-----5-8-8-5-6-6------5-8-8-6-5-----5-8-6-5--6-5-----5----
D|-5-7--------------5-7-----------5-7---------5----7-7---7-5

Comentários 1

Composição: Humberto Teixeira / Luiz Gonzaga
Esse não é o compositor? Avise-nos.
Contribuição: Fof's Correções: kevin e mais 2 »
Exibir acordes »
publicidade
fechar