Um pro Outro

Lulu Santos

 Lulu Santos
Tom: F
		
Intro:

Base pro solo: F  G7(9)  Dm  G7
               F  G7(9)  C


E|-----------------------------------------------------------------|
A|-----------------3p5----3----------------------------------------|
D|-------------3-5-----------3--6h5h6------------------------------|
G|----5--5--5------------------------------------5-----------------|
B|-----------------------------------------6-5-3---3-5--1p2p3------|
E|-----------------------------------------------------------------|



E|-----------------------------------------------------------------|
A|-----------------3p5----3----------------------------------------|
D|-------------3-5-----------3--6h5h6------------------------------|
G|----5--5--5------------------------------------------------------|
B|-----------------------------------------------------------------|
E|-----------------------------------------------------------------|


Riff 1

E|---------------3-1-----------------------|
A|-------5-3-1-0---------------------------|
D|-5-3-2-----------------------------------|
G|-----------------------------------------|
B|-----------------------------------------|
E|-----------------------------------------|


F            G9             C
  Foi bom te ver de novo aqui  (Riff1)
  F        G9         C               F
  A gente tinha mesmo tanta razão pra seguir
         Dm            Bb           D/F#             Gm7        C  (Riff1)
  Fora o som dessa guitarra a voz sempre rouca e o coração na mão
F            G9           C    (Riff1)
  Surpresa certa te encontrar
F      G9        C                      F
a tua onda pega bem mesmo em qualquer lugar
            Dm        Bb          D/F#        Gm7        C
  Até na esquina do pecado o que for da vida não nos deterá
Bb            C             Dm  C        Bb  Gm7            A7           Dm
  Nós somos feitos um pro outro, pode crer por isso é que eu estou aqui
Bb             C        Dm C     Bb    Gm7      A7        Dm
  E não há lógica que faça desandar o que o acaso decidir
        
Base pro solo: F  G7(9)  Dm  G7
               F  G7(9)  C


E|-----------------------------------------------------------------|
A|-----------------3p5----3----------------------------------------|
D|-------------3-5-----------3--6h5h6------------------------------|
G|----5--5--5------------------------------------5-----------------|
B|-----------------------------------------6-5-3---3-5--1p2p3------|
E|-----------------------------------------------------------------|



E|-----------------------------------------------------------------|
A|-----------------3p5----3----------------------------------------|
D|-------------3-5-----------3--6h5h6------------------------------|
G|----5--5--5------------------------------------------------------|
B|-----------------------------------------------------------------|
E|-----------------------------------------------------------------|


Riff 1

E|---------------3-1-----------------------|
A|-------5-3-1-0---------------------------|
D|-5-3-2-----------------------------------|
G|-----------------------------------------|
B|-----------------------------------------|
E|-----------------------------------------|



F           G9        C (Riff1)  F        G9          C               F
  Tanta certeza no olhar,       tamanha pressa de chegar a nenhum lugar
          Dm         Bb           D/F#         Gm7             C
  Só pra ter a sensação de que a vida passa assim como um tufão
Bb            C             Dm  C        Bb  Gm7            A7          Dm
  Nós somos feitos um pro outro, pode crer por isso é que eu estou aqui
Bb           C         Dm C       Bb  Gm7      A7        Dm
  E não há lógica que faça desandar o que o acaso decidir


Base pro solo: F  G7(9)  Dm  G7
               F  G7(9)  C


E|-----------------------------------------------------------------|
A|-----------------3p5----3----------------------------------------|
D|-------------3-5-----------3--6h5h6------------------------------|
G|----5--5--5------------------------------------5-----------------|
B|-----------------------------------------6-5-3---3-5--1p2p3------|
E|-----------------------------------------------------------------|



E|-----------------------------------------------------------------|
A|-----------------3p5----3----------------------------------------|
D|-------------3-5-----------3--6h5h6------------------------------|
G|----5--5--5------------------------------------------------------|
B|-----------------------------------------------------------------|
E|-----------------------------------------------------------------|


Riff 1

E|---------------3-1-----------------------|
A|-------5-3-1-0---------------------------|
D|-5-3-2-----------------------------------|
G|-----------------------------------------|
B|-----------------------------------------|
E|-----------------------------------------|
105.401 exibições

Comentários 4

  • luizfelipe.rodriguesmaciel luizfelipe.rodriguesmaciel: Postado em 28/06/2014 22:24

    mas falta a tabla.. da musica, mas ele faz com a guitarra ñ com violão.

  • alanandrade alanandrade: Postado em 30/10/2013 21:42

    Se pintar melhor, passa o link!

  • alanandrade alanandrade: Postado em 30/10/2013 21:41

    De vagar a cifra!!!

  • delermando delermando: Postado em 29/10/2012 10:42

    onde está a TAB da intro?

Composição: Lulu Santos
Esse não é o compositor? Avise-nos.
Contribuição: VLADI DU KAVAKO ...........® Correções: Villy »
Exibir acordes »
publicidade
fechar