Haja o que houver

Madredeus

 Madredeus
Tom: E
		
Intro..


E|--9-7--4-7--9-7--4-12-12-12---------------- (2x)
B|-------------------------------------------


E              A           E 
Haja o que houver eu estou aqui 
               A            E 
Haja o que houver espero por ti 
         A        E 
Volta no vento ó meu amor 
        A             B     E 
Volta depressa por favor

          A               E  
Há quanto tempo já esqueci 
         A                E
Porque fiquei longe de ti 
       A               E 
Cada momento é pior
         A             B     A  
Volta no vento por favor 

E]--9-7--4-7--9-7--4-12-12-12--
Repete até o fim da musica..

        E 
Eu sei
     A       E 
Quem és para mim 
A             E                A      E 
Haja o que houver espero por ti

        E 
Eu sei, eu sei
     A       E 
Quem és para mim 
A             E                A      E 
Haja o que houver espero por ti...


E|--(12*)--12-11-9---5-12-11-9-7-5-9-7-4-5-4---0-2-4-2-0- (2x*)
B|-------------------------------------------------------------------
G|-------------------------------------------------------------------



E|--7-7-7-7-9-7-5-4-2-4-2-0-0---0-2-4-2-0- (2x)
B|------------------------------------------------------
G|------------------------------------------------------



E|--12-12-11-9--5-12-11-9-7-5-9-7-4-5-4---0-2-4-2-0- (2x)
B|-------------------------------------------------------------------
G|-------------------------------------------------------------------



E|--7-7-7-7-9-7-5-4-2-4-2-0-0---0-2-4-2-0-(12*)- (2x)
B|--------------------------------------------------------------
G|--------------------------------------------------------------
21.596 exibições

Comentários 0

Composição: Pedro Ayres Magalhães
Esse não é o compositor? Avise-nos.
Contribuição: Zombie Correções: Laura e mais 1 »
Exibir acordes »
publicidade
fechar