Mamonas Assassinas

1406

394.340 exibições
Tom: C
Intro:

E|-------12~~--15~~--|
B|-------12~~--15~~--|
G|-------------------|
D|-------------------|
A|-------------------|
E|-------------------|

  H.a.                                  .
E|---------------------------------------------------------------------------------|
B|-------------------------------------5a.~----------------------------------------|
G|-----------------------------------6---------------------------------------------|
D|---7-6p0----------------7-6po----5---------7-6p0---------------7-6p0-----(4-5)---|
A|---------4-4/5~---------------4-4----------------4-4/5~--------------4-4-(4-5)---|
E|-0--------------5~----0------------------0--------------5~----0----------(2-3)---|(X2)

a.= Harmônico Artificial (Palheta a corda e, em seguida, encosta o dedão para sair um som bem estridente)
()= Só na primeira vez


(Verso)

E|------------------------12~~---|------------------------15~~--|
B|------------------------12~~---|------------------------15~~--|
G|-------------------------------|------------------------------|
D|---------------2---------------|---------------2--------------|
A|-------5----------5-5----------|-------5----------5-5---------|
E|-0-2-3---0-2-3-----------------|-0-2-3---0-2-3----------------| (X8)

E
Eu queria um apartamento no Guarujá mas o melhor que consegui foi um barraco em Itaquá
Você não sabe como parte um coração, ver seu filhinho chorando querendo ter um avião
Você não sabe como é frustrante, ver sua filhinha chorando por um colar de diamantes
Você não sabe como eu fico chateado, ver meu cachorro babando por um carro importado


G5   E5  F5                   G5   E5  F5
Money      que é good nós no have,        se nós hevasse
                      G5  E5  F5                      E5
Nós num tava aqui playando,     mas nós precisa de worká
G5   E5  F5                   G5 E5 F5
Money      que é good nós no have,      se nós hevasse
                     G5   E5  F5                   E5
Nós num tava aqui workando,      o nosso work é playá


(Intro)

(Verso)

E
Mas a pior de todas é a minha mulher, tudo o que ela olha a desgraçada quer
Televisão, microondas, micro system, microscópio, limpa-vidro, limpa-chifres
Faca ginsu, eu sou cagado veja só como é que é
Se der chuva de Xuxa no meu colo cai Pelé
Como aquele ditado que já dizia : Pau que nasce torto, mija fora da bacia

(Refrão)

(Intro)

(Verso)

E
Mas a pior de todas é minha mulher, tudo o que ela olha a desgraçada quer
Ambervision, frigi-diet, celular, master-line, camisinha, camisola e kamikaze
Eu sou cagado veja só como é que é, se der uma chuva de Xuxa no meu colo cai Pelé
Como aquele ditado que já dizia : Pau que nasce torto, mija fora da bacia

(Refrão)
  P.m.. ....            .... ....
E|---------------12~~--|---------------15~~--|
B|---------------12~~--|---------------15~~--|
G|---------------------|---------------------|
D|---------------------|---------------------|
A|-2222-2222*----------|-2222-2222*----------|
E|-0000-0000*----------|-0000-0000*----------| (Obs.: Até a música acabar)

*PM= Abafa a corda com a mão direita, na ponte
    Composição: Dinho / Júlio RasecColaboração e revisão:
    • champoski
    • carlos
    • haseoback
    • Gustavo
    • +6

    Comentários 13

    140 .
    • mateus mateus: Em 18/12/2014 20:39

      alguem sabe as configuraçoes do amplificador? tipo o gain o bass ,mid e treble

    • ian ian: Em 11/12/2014 23:02

      Video Aula

    • Fagner Fagner: Em 16/10/2014 13:20

      esse verso ta errado

    • Iago Iago: Em 02/07/2014 16:59

      Muito massa

    • Pedro Pedro: Em 12/06/2014 21:23

      A musica foi facil entender a tablatura,bem organizada, mas agora tem q treinar pois agr q comecei na guitarra

    • maxcifras maxcifras: Em 25/03/2014 21:56

      vídeo aula po!

    • victor victor: Em 14/09/2013 18:02

      video aula

    • Camila Camila: Em 09/09/2013 15:11

      video aula..........

    • ayran.campos ayran.campos: Em 24/01/2013 13:23

      ee video aula

    • jonthas jonthas: Em 03/09/2012 09:55

      a introdução esta certa ?

    Exibindo 10 de 13 comentários Mostrar mais ver todos »
    140 cancelar

    conseguiu tocar?

    • rafaelbtos
    • filipe.luiz.7771
    • mateus
    • FelipeKF3
    • evandro.mazer
    • Felipe
    • Iago
    • •••
    0:00 / 0:00

    Capítulos

      3 versões de Guitar Proformatodownloadscontribuição
      play/pausefechar subir/descer velocidade
      6ª corda E5ª corda A4ª corda D3ª corda G2ª corda B1ª corda E
        acordes
        publicidad
        fechar
        ok