Si No Te Hubieras Ido

Maná

 Maná Compositor: Marco A. Solis
Tom: D
		
Introdução :


E|---------------------------------------------|
B|---7---8---8-7---7-5-------7---8---8-7---7-5-|
G|-7---7---7-----7-----7---7---7---7-----7-----|
D|---------------------------------------------|
A|---------------------------------------------|
E|---------------------------------------------|



E|---------------------5------------------------|
B|---7---8---8-7---7-5--------7---8---8-7---7-5-|
G|-7---7---7-----7----------7---7---7-----7-----|
D|----------------------------------------------|
A|----------------------------------------------|
E|----------------------------------------------|


Riffs :


E|-------0---------2---0-------|
B|-----3---3-----3---3---2---0-|
G|---2-------2-------------3---|
D|-0---------------------------|
A|-----------------------------|
E|-----------------------------|



E|-------0-----2-----3-2-0-|
B|-----3---3-----3---------|
G|---2-------2-----2-------|
D|-0-----------------------|
A|-------------------------|
E|-------------------------|



E|----------0------|
B|---3--------2-0--|
G|-----2-----------|
D|-0------4--------|
A|-----------------|
E|-----------------|



E|-------3-2-0-------2-------2-0-------|
B|-----3-------3-2---3-----3-----2---0-|
G|---0---------------2---2---------3---|
D|-------------------0-----------------|
A|-------------------------------------|
E|-3-----------------------------------|


Bm                  G         A         D
     TE EXTRAÑO MAS QUE NUNCA Y N0 SE QUE HACER
F#7 Bm                 G         A   D
     DESPIERTO Y TE RECUERDO AL AMANECER
    A                               D
     ESPERA OTRO DIA POR VIVIR SIN TI
   F#7               Bm
     EL ESPEJO NO MIENTE
                   G
     ME VEO TAN DIFERENTE
    A                D   F#7
     ME HACES FALTA TU

    Bm             G                A    D
     LA GENTE PASA Y PASA SIEMPRE TAN IGUAL
F#7 Bm               G        A     D
     EL RITMO DE LA VIDA ME PARECE MAL
    A                                  D   F#7 Bm
     ERA TAN DIFERENTE CUANDO ESTABAS TU
 A  G               A                    D
     SI QUE ERA DIFERENTE CUANDO ESTABAS TU

    A                                      D
     NO HAY NADA MAS DIFICIL QUE VIVIR SIN TI  ¡NO!
    A                                  D
     SUFRIENDO EN LA ESPERA DE VERTE LLEGAR
    A                                  D
     EL FRIO DE MI CUERPO PREGUNTA POR TI
     F#7            Bm   A  G
     Y NO SE DONDE ESTAS
                        A              D
     SI NO TE HUBIERAS IDO SERIA TAN FELIZ.

      Bm             G               A      D
     LA GENTE PASA Y PASA SIEMPRE TAN IGUAL
F#7 Bm               G        A     D
     EL RITMO DE LA VIDA ME PARECE MAL
    A                                  D   F#7 Bm
     ERA TAN DIFERENTE CUANDO ESTABAS TU
 A  G               A                    D
     SI QUE ERA DIFERENTE CUANDO ESTABAS TU

    A                                      D
     NO HAY NADA MAS DIFICIL QUE VIVIR SIN TI  ¡NO!
    A                                  D
     SUFRIENDO EN LA ESPERA DE VERTE LLEGAR
    A                                  D
     EL FRIO DE MI CUERPO PREGUNTA POR TI
     F#7            Bm   A  G
     Y NO SE DONDE ESTAS
                        A              D
     SI NO TE HUBIERAS IDO SERIA TAN FELIZ.

    A                                      D
     NO HAY NADA MAS DIFICIL QUE VIVIR SIN TI  ¡NO!
    A                                  D
     SUFRIENDO EN LA ESPERA DE VERTE LLEGAR
     F#7            Bm   A  G
     Y NO SE DONDE ESTAS
                        A              Bm   A  G
     SI NO TE HUBIERAS IDO SERIA TAN FELIZ
    D                    A              D
     SI NO TE HUBIERAS IDO SERIA TAN FELIZ.
60.567 exibições

Comentários 0

Composição: Osvaldo Cuenca Ocampo
Esse não é o compositor? Avise-nos.
Contribuição: diaz Correções: hernanicd e mais 1 »
Exibir acordes »
publicidade
fechar