Não Tenho o Dom

Marcela Taís

 Marcela Taís
Tom: C
		
Intro: C  G/B  Am7  F9


      C                         G/B
E|-----------------------------------------------------------
B|-----------------------------------------------------------
G|-----------------------------------------------------------
D|-----2----3----5--3-2-3-2-------2-----3-----5--3-2-3-2-----
A|--3-3--3-3--3-3------------3-2-2---2-2---2-2---------------
E|-----------------------------------------------------------



       Am7                            F9
E|------------------------------------------------------------
B|-----------------------------------1------1------1-----1----
G|---------------------------------0---0------0------0-----0--
D|-------2----3----5--3-2-3-2----3-------3------3------3-----3
A|--2-0-0--0-0--0-0-------------------------------------------
E|------------------------------------------------------------



      C                         G/B
E|-----------------------------------------------------------
B|-----------------------------------------------------------
G|-----------------------------------------------------------
D|-----2----3----5--3-2-3-2-------2-----3-----5--3-2-3-2-----
A|--3-3--3-3--3-3------------3-2-2---2-2---2-2---------------
E|-----------------------------------------------------------



       Am7                            F9
E|-------------------------------------------------1--0------
B|-----------------------------------1------1------------3---
G|---------------------------------0---0------0--------------
D|-------2----3----5--3-2-3-2----3-------3------3------------
A|--2-0-0--0-0--0-0------------------------------------------
E|-----------------------------------------------------------



Solo:

               C                     G/B                     Am7
E|----------------------------------------------------------------
B|----------------------------------------------------------------
G|--5----/----9----12--10--9----/----4-----12--10--9----/----2----
D|----------------------------------------------------------------
A|----------------------------------------------------------------
E|----------------------------------------------------------------



              F9                      C
E|-----------------------13--12--10--12---------------------------
B|--8--6--5--6----------------------------------------------------
G|----------------------------------------------------------------
D|----------------------------------------------------------------
A|----------------------------------------------------------------
E|----------------------------------------------------------------



C
  Eu ficaria para sempre aqui
G/B
   Se tu me escutas então falo a ti
Am7                                  F
   Se não lhe vejo não o deixo de sentir
                                 C/G
E se me laças eu não quero mais sair
G/B                   Am7      F
    Eu ficaria sempre aqui
C                                  G/B
  Se por acaso eu não conseguir dizer
                             Am7
Foi sua perfeição que me fez calar
                            F
Queria com palavras te impressionar
C                       G/B
  Mas eu não tenho o dom
                 Am7               F
Não tenho este dom com as palavras,
C                      G/B
  Não, não tenho este dom
                    Am7
Não, não tenho este dom
            F
Com as palavras
C
  Se fico aqui não penso mais em mim
G/B
  Eu tô tentando me declarar
Am7               F
  E, se vais ouvir, então eu calo
           C
O coração vai lhe dizer
                          G/B
Eu não tenho o dom das palavras
  Am7
Mas o coração
              F
Ele vai lhe dizer

Vai lhe dizer, lhe dizer
Ele vai... (é ele quem vai lhe dizer).
39.402 exibições

Comentários 3

  • hilton.silva.5074 hilton.silva.5074: Postado em 12/10/2014 08:52

    vc tambem conssegue

  • Deni Deni: Postado em 06/01/2014 23:42

    Linda música, aprendi tocar igualzinha, até o toque do inicio, obrigado! \o/

  • dandara26 dandara26: Postado em 12/10/2012 20:58

    Linda Música e Fácil!!

Composição: Sabe quem é o compositor? Envie pra gente. Contribuição: pbls Correções: Jhonata e mais 2 »
Exibir acordes »
publicidade
fechar