Paranóias do Coração

Marcelinho de Lima

 Marcelinho de Lima
Tom: A
		
(intro)

(base)  A9  F#m  D  E

(solo)

E|-0-----0-----0-----0-----0-----0-----0-----0-----0-|
B|-0-----0-----0-----0-----0-----0-----0-----0-----0-|
G|---1h2---1/2---1h2---1/2---1h2---1/2---1h2---1/2---|
D|---------------------------------------------------|
A|---------------------------------------------------|
E|---------------------------------------------------|


(primeira parte)

A9
  Não vou mentir pra mim mesmo
F#m
  Alguma coisa mudou
D                       Bm
  Não sei dizer com certeza
D                   E
  Será que tudo acabou.

A9
  Talvez eu esteja errado
F#m
  E seja só impressão
D                  Bm
  Quem sabe seja ciúmes
D                  E
  Ou paranóias do coração.

A9
  Você chegou de repente
F#m
  Tão de repente se foi
D                          Bm
  Que foi que houve com a gente
D                 E
  Me telefona me diz um oi.

(refrão)
    A9
Eu sinto seu corpo bem junto ao meu corpo
    F#m
Eu vejo seu rosto na imensidão
    D                 Bm
Eu saio na chuva eu choro com a chuva
     G            E
Mas nada apaga essa paixão.
   A9
Me olho no espelho me sinto vazio
   F#m
Solidão e tédio me falta você
   D                Bm               E
Será que no mundo existe um remédio

Que faça esquecer.

(solo base) A9 F#m

(solo)

E|-----5-4-------5---4-5/7-5-5---4-------5p4---------|
B|-3/5-----5h7-5---5-----------5---5h7-5-----5-------|
G|---------------------------------------------4/6---|
D|---------------------------------------------------|
A|-------------------------------------------------0-|
E|---------------------------------------------------|


(* depois do solo, tocar a parte seguinte como foi ensinado pra primeira parte,
e depois tocar o segundo refrão da música)

A9
  Eu caminho pela casa
F#m
  Eu perco a lucidez
D                      Bm
  Tento enganar minha mente
D                       E
  Chamo seu nome outra vez.

A9
  Mas você nunca responde
F#m
  Me diz pra onde é que você foi
D                      Bm
  Eu não to mais aguentando
D             E
  Me telefona   me diz um oi.

    A9
Eu sinto seu corpo bem junto ao meu corpo
    F#m
Eu vejo seu rosto na imensidão
    D                 Bm
Eu saio na chuva eu choro com a chuva
     G            E
Mas nada apaga essa paixão.
   A9
Me olho no espelho me sinto vazio
   F#m
Solidão e tédio me falta você
   D                Bm               E
Será que no mundo existe um remédio

(refrão final)

F#    B9                                  F#
  Eu sinto seu corpo bem junto ao meu corpo
    G#m                     F#
Eu vejo seu rosto na imensidão
    E                 C#m
Eu saio na chuva eu choro com a chuva
     A            F#
Mas nada apaga essa paixão.
   B9                           F#
Me olho no espelho me sinto vazio
   G#m                      F#
Solidão e tédio me falta você
   E                C#m              F#
Será que no mundo existe um remédio

               E        B/D#
Que faça esquecer de você
        C#m        F#
Teu sorriso teu olhar
E                    B/D#
  Pra onde vão seus pés
            C#m B/D#   E  F#
Pra que eu possa    caminhar
       B  G#m B
Com você

(solo final)

E|-2-----2-----2-----2-----2-----2-----2-----2-----2--|
B|---------------------------------------------------2|
G|---3h4---3h4---3h4---3h4---3h4---3h4---3h4---3h4---3|
D|----------------------------------------------------|
A|----------------------------------------------------|
E|----------------------------------------------------|
10.234 exibições

Comentários 0

Composição: Deive Silva / Marcelinho de Lima
Esse não é o compositor? Avise-nos.
Contribuição: tavinhodm
Exibir acordes »
publicidade
fechar