Afinação do baixo é meio tom abaixo. 

Intro
G|--------------------|-----------------------|---------------------|
D|--------------------|-----------------------|---------------------|
A|--------------------|-----------------------|---------------------|
E|---5~~~--1~~~--5~~~-|----5~~~--1-0~~--5~~~--|----5~~~--1~~~--5~~~-|

G|-------------------------------------------------------|
D|-------------------------------------------------------|
A|------------------------------------5-(8x)---3-(8x)----|    2x
E|--555-3h5-555-0-3-55555-3h5—555-0-3--------------------|

“Ouvi dizer...”
G|-----------------------------------------------------|
D|-----------------------------------------------------|
A|------------------------5555-3-3h5-3333-3-3h5-3h5----|   2x
E|--5555-00-33-5555-00-33------------------------------|

“foi capaz...”
G|------------------------------------------------------------------|
D|------------------------------------------------------------------|
A|-55555555-----------3~~-2~~-0~~-------55555555--------------------|
E|----------33333333--------------3~~------------33333333—1-(32x)---|

``minha flor...´´
G|-----------------------------|
D|-----------------------------|
A|-5555-3-3h5-3333-3-3h5-3h5---|
E|-----------------------------|

G|-----------------------------------------------------|
D|-----------------------------------------------------|
A|------------------------5555-3-3h5-3333-3-3h5-3h5----|
E|--5555-00-33-5555-00-33------------------------------|

G|------------------------------------------------------------------|
D|------------------------------------------------------------------|
A|-55555555-----------3~~-2~~-0~~-------55555555--------------------|
E|----------33333333--------------3~~------------33333333—1-(32x)---|

(parte instrumental)
G|-5~-4~-0~-2~-5~-7~-5~-|------------------------------------|
D|----------------------|------------------------------------|
A|----------------------|--------------------55555~-5-33333~-|
E|----------------------|-3-55555~-3-55555~-3----------------|

``tua flor...´´ (igual a parte ``minha flor´´ com uma pequena mudança na parte):
G|--------------------------------------------------------|
D|--------------------------------------------------------|
A|-55555555-----------3~~-2~~-0~~-------55555555----------|
E|----------33333333--------------3~~------------33333333-|

Intro até o final

``Vai!´´ (segura na Lá (quinta casa na corda E)
G|----------------------------------------|
D|----------------------------------------|
A|----------------------------------------|
E|-5-5-----5-5------5-5-----5-5-----5-5---|
133 exibições

Comentários 0

Consegui tocarAinda não conseguiram tocar essa música. Seja o primeiro!
    Não consegui tocar
    publicidade
    fechar