Doce Solidão

Marcelo Camelo

 Marcelo Camelo Compositor: Marcelo Camelo
Tom: A
		
(intro) A C#m7 ( C#m7 Cm7 Bm7 ) E (riff1)
        A C#m7 ( C#m7 Cm7 Bm7 ) E (riff2)

(riff 1)

E|-------------------------
B|------------5-----3------
G|-----2-4/6~---6/4--------
D|-2/4~--------------------
A|-------------------------
E|-------------------------


(riff 2)

E|-------------------------
B|-------------5-----5-----
G|-----2---4/6---4/6~------
D|-2/4~----4/6---4/6~------
A|-------------------------
E|-------------------------


(riff 3)

E|-------------------------
B|-------------------------
G|------2~-----2~----------
D|--2/4----2/4-------------
A|-------------------------
E|-------------------------


A          C#m7 (C#m7 Cm7 Bm7)           E          A
Posso estar só               mas sou de todo mundo
          C#m7     (C#m7 Cm7 Bm7)           E                 A
Por eu ser    só um              ah nem , ah não , ah nem dá
     C#m7 Cm7 Bm7                        E
Solidão ,     foge que eu te encontro que eu já tenho asa
Dm7 C#m7 Bm7   A  (riff 3)
  Isso   lá é bom ?
Dm7 C#m7 Bm7  E
  Doce  solidão

A C#m7 ( C#m7 Cm7 Bm7 ) E (riff 1)
A C#m7 ( C#m7 Cm7 Bm7 ) E (riff 2)


     A 		  Bm    E4   E         Bm   E4     E        A
E|---------------0-------------------------------------------4-/5---2----
B|-------------2----3--3-----------------3-3--------3-6-5---------5---2--
G|-----------2------------2-2--1----1---------2-2/4----------------------
D|---2--2h4-----------------------2---2----------------------------------
A|---0--0~----------2--2--2-2--2---------2-2--2-----------------0~-------
E|---------------------------------------------------------0~------------



  	    Fm/C*      A			       E
E|----------------------2---4---2------------------------2----------------
B|--5-4-3-2--1~---1--4------------2-5---/2--------------------------------
G|--6-5-4-3-----1---------------------4-----4--------1~--0/1----1---------
D|--------------------------------------------4-4h6--2~--1/2--2-----------
A|--7-6-5-4--3~---------0---0---0-0-0~---------------2~--1/2--------------
E|------------------------------------------------------------------------



     A		   Bm	        E		        Bm       E       A
E|-5---2---------------------5---7~--------------------------------------------
B|---5---2--5---2----------7----7~-----9/5~-----7/9~-----7-3~-----2/5~------2---
G|------------4---4-4/7--7-----7~-----------------------------------------7/2---
D|-------------------------------------8/6~-----6/9~-----6-4~-----2/6~------2---
A|-0~---------------------------------------------------------------------0-----
E|-----------------------------------0~---0-0~-----0-0~-----0-0~----0-0~----0---



            E     A
E|-----------------
B|-----------------
G|-----------------
D|--2h4-3-2--------
A|--------------0~-
E|----------0/2----


(repete tudo)

 Fm/C*
e|1
B|1
G|1
D|X
A|3
E|X
Texto Colunas
Alterar tom ½ tom ½ tom
afinação acordes na letra esconder tabs mais »
76.765 exibições

Comentários 8

  • elber.salvador elber.salvador: Postado em 22/08/2013 22:15

    eu consegui tocar fácil , não sou profissional , mas essa música é fácil pra média ...

    • giovanijr. giovanijr.: Postado em 01/08/2014 21:20

      cara, tbm consigo, mais essa e uma musica rica em detalhes, o solo dela e dificil e o dedilhado tem adaptaçoes nos acordes.....

  • joice.lustoza joice.lustoza: Postado em 19/07/2013 13:40

    afff um bando de bundão !! ta muito fácil , treinem que vocês vão consegui !!!

  • Lucas Lucas: Postado em 28/06/2013 19:47

    faz video aula

  • v.d.p_ v.d.p_: Postado em 27/04/2013 21:41

    video aula completa!!!!!

  • Matheus Matheus: Postado em 27/04/2013 12:34

    VIDEOOO AULAAAA!!!!!!

  • gustavorlcc gustavorlcc: Postado em 01/05/2012 20:53

    Sei que meu pedido não será aceito, más não custa nada tentar! FAZ UMA VÍDEO AULA DESSA MÚSICA POR FAVOR.

  • ands6 ands6: Postado em 20/12/2011 15:23

    Por favor, por favor, façam vídeo-aula dela pleaaaaaaaase ):

Composição: Dann Gallucci / Irwan Simanjuntak / Nigel Hendroff
Esse não é o compositor? Avise-nos.
Contribuição: Gallo Correções: Dragoni , Vinicius Gusmão e mais 2 »
  1. Até Você Voltar - Henrique e Juliano Manteve-se 100.530 exibições
  2. Domingo de Manhã - Marcos e Belutti Manteve-se 81.990 exibições
  3. Cuida Bem Dela - Henrique e Juliano Manteve-se 53.116 exibições
  4. Recaídas - Henrique e Juliano Manteve-se 44.094 exibições
  5. Pra Você - Onze:20 Manteve-se 40.225 exibições
  6. Choram As Rosas - Bruno e Marrone Manteve-se 36.007 exibições
  7. Raridade - Anderson Freire Manteve-se 33.869 exibições
  8. Só Os Loucos Sabem - Charlie Brown Jr. Manteve-se 33.732 exibições
  9. Logo Eu - Jorge e Mateus Manteve-se 31.459 exibições
  10. Pais e Filhos - Legião Urbana Manteve-se 30.270 exibições
  1. Henrique e Juliano- Manteve-se 282.025 exibições
  2. Jorge e Mateus- Manteve-se 233.750 exibições
  3. Legião Urbana- Manteve-se 203.619 exibições
  4. Bruno e Marrone- Manteve-se 154.179 exibições
  5. Charlie Brown Jr.- Manteve-se 153.397 exibições
  6. Fernandinho- Manteve-se 122.907 exibições
  7. Luan Santana- Manteve-se 106.344 exibições
  8. Marcos e Belutti- Manteve-se 100.570 exibições
  9. Thalles Roberto- Manteve-se 93.287 exibições
  10. The Beatles- Manteve-se 88.132 exibições
Exibir acordes »

Cifras e tabs

Fórum Cifra Club

Aprenda

Cifra Club News

Mais Serviços Cifra Club ID

Studio Sol

©1996 - 2014 Cifra Club · o primeiro, maior e mais acessado do Brasil · 339 mil músicas · 6.3 milhões pessoas cadastradas

publicidade
fechar