Doce Solidão

Marcelo Camelo

 Marcelo Camelo Compositor: Marcelo Camelo
Tom: A
		
(intro) A C#m7 ( C#m7 Cm7 Bm7 ) E (riff1)
        A C#m7 ( C#m7 Cm7 Bm7 ) E (riff2)


   A        C#m7                                   Bm7      E
E|--------|---5-4-2---4----------4--3------2-----|-2-0----|-0----
B|-1/2--2-|---2-------5----5-----5--4--------3---|-----3--|-----0
G|-1/2--2-|---2-------6--6-------6-5-----4-----4-|--------|---1--
A|-0------|-0------------------------------------|-2------|------
E|--------|--------------------------------------|--------|-0----


(riff 1)

E|-------------------------
B|------------5-----3------
G|-----2-4/6----6/4--------
D|-2h4---------------------
A|-------------------------
E|-------------------------


(riff 2)

E|-------------------------
B|-------------------------
G|-----2---4/6---4/6~------
D|-2h4-----4/6---4/6~------
A|-------------------------
E|-------------------------


(riff 3)

E|-------------------------
B|-------------------------
G|------2~-----2~----------
D|--2h4----2h4-------------
A|-------------------------
E|-------------------------


A          C#m7 (C#m7 Cm7 Bm7)           E          A
Posso estar só               mas sou de todo mundo
          C#m7     (C#m7 Cm7 Bm7)           E                 A
Por eu ser    só um              ah nem , ah não , ah nem dá
     C#m7 Cm7 Bm7                        E
Solidão ,     foge que eu te encontro que eu já tenho asa
Dm7 C#m7 Bm7   A  (riff 3)
  Isso   lá é bom ?
Dm7 C#m7 Bm7  E
  Doce  solidão

A C#m7 ( C#m7 Cm7 Bm7 ) E (riff 1)
A C#m7 ( C#m7 Cm7 Bm7 ) E (riff 2)


E|-------------------------------------------------------------4-4/5-0--1/2--
B|-----------2--5--3--3--------------0-----3--3--------3--6--5--------------2
G|--------2--------------2--2--1----------------2--2/4-----------------------
D|---------------------------------------------------------------------------
A|-2--2h4----------2--2-----------------0--2--2------------------0------0----
E|-----------------------2--2--0--2--4---------------------------------------



E|-------------------------2--4--2-----0----------------------------------5-0--2----0-------
B|-5--4--3--2--1-----1--4--------0--3----0--1/2----------6--4/5------------------2----0--1/2
G|-6--5--4--3--1-----1--1--------0------------2----------5--6/7----------------------------2
D|-------------------------------0---------------4-4/6---6--5/6-----------------------------
A|-0-----------0--0------------------------------------0----6/7--6--5--4--3----2----0----0--
E|------------------------------------------------------------------------------------------



E|-----------7~-------0--------2--2/4-----------------------------------------------------
B|-----7--9--7~--9/0--0--------3--3/5-------7/--3-------2/3--3/5-----2---------------6----
G|-4-4/7--7--7~-------0--------4--4/6-----------4------------4/6--7--2------0-----5----7/-
D|----------------------------------------------4------------4/6-----2----4----7----------
A|----------------------------------------------------------------------4-----------------
E|--------------------0--0--0----------0-0---------0-0---------------0--------------------

(repete tudo)
80.008 exibições

Comentários 8

  • elber.salvador elber.salvador: Postado em 22/08/2013 22:15

    eu consegui tocar fácil , não sou profissional , mas essa música é fácil pra média ...

    • giovanijr. giovanijr.: Postado em 01/08/2014 21:20

      cara, tbm consigo, mais essa e uma musica rica em detalhes, o solo dela e dificil e o dedilhado tem adaptaçoes nos acordes.....

  • joice.lustoza joice.lustoza: Postado em 19/07/2013 13:40

    afff um bando de bundão !! ta muito fácil , treinem que vocês vão consegui !!!

  • Lucas Lucas: Postado em 28/06/2013 19:47

    faz video aula

  • v.d.p_ v.d.p_: Postado em 27/04/2013 21:41

    video aula completa!!!!!

  • Matheus Matheus: Postado em 27/04/2013 12:34

    VIDEOOO AULAAAA!!!!!!

  • gustavorlcc gustavorlcc: Postado em 01/05/2012 20:53

    Sei que meu pedido não será aceito, más não custa nada tentar! FAZ UMA VÍDEO AULA DESSA MÚSICA POR FAVOR.

  • ands6 ands6: Postado em 20/12/2011 15:23

    Por favor, por favor, façam vídeo-aula dela pleaaaaaaaase ):

Composição: Dann Gallucci / Irwan Simanjuntak / Nigel Hendroff
Esse não é o compositor? Avise-nos.
Contribuição: Gallo Correções: Afonso , leopoldino e mais 3 »
Exibir acordes »
publicidade
fechar