Dois Barcos

Marcelo Camelo

 Marcelo Camelo Compositor: Marcelo Camelo
Tom: G#
		
Introdução:

    Cm7         F          Cm7
e|------3-------1------------3---------------|
B|------4-------1------------4---------------|
G|----5---------2-----------5----------------|
D|--------------3----------------------------|
A|--3-----6-5-3-3---------3------------------|
E|--------------1--0--2----------------------|


Cm Bb       F         
   Quem bater
Cm Bb       F                
     Primeiro a dobra do mar 
Cm Bb    F                       
      Dá de lá bandeira qualquer,
Cm Bb   F 
      Aponta pra fé
          Eb7M(9) Eb6(9) Ebº D7     Eb7M(9) Eb6(9) Ebº D7
      E rema

          Gm7 Gm6 D# Ebº    Gm7 Gm6 D# F

F#7M    Fm7                         
   É,   pode ser que a maré não vire
F#7M          Fm7 
     Pode ser  do vento vir contra o cais
F#7M        Fm7 
     E se já não sinto os teus sinais
F#7M         Fm7               Ebm7    Ab     Db    Ab/C
     Pode ser da vida acostumar     será,   morena?
             B     Bbm7 Eb7
Sobre estar  só eu sei)
          Abm7           
 P : Nos mares por onde andei
 a : Bb7     Ebm7
 r :     Devagar
 t : Bb7   Ebm7             Abm7
 e :     Dedicou-se mais o acaso a se esconder
   :     Bb7                (repete Introd 4x)
 2 : E agora o amanhã cadê?

Eb7M(9) Eb6(9) Ebº D#7    Eb7M(9) Eb6(9) Ebº D#7
Gm7 Gm6 D# Ebº    Gm7 Gm6 D# F

Db           Ab/C       Db         Ab/C       
    Doce o mar    perdeu    no meu cantar (2x)
 B     Bbm7 Eb7
 só eu sei  ... (repete PARTE 2)

         Cm7 Bb  Eb
.... cadê?


e|-11-10-8-----------------------------------|
B|-8-------8------8--8-10~~------------------|
G|-8---------8~--8--8------------------------|
D|-------------------------------------------|
A|-------------------------------------------|
E|-------------------------------------------|



e|-11-10-8-10~--------11~~-------------------|
B|-8--------------11~------------------------|
G|-8-----------------------------------------|
D|-------------------------------------------|
A|-------------------------------------------|
E|-------------------------------------------|
11.117 exibições

Comentários 0

Consegui tocarAinda não conseguiram tocar essa música. Seja o primeiro!
    Não consegui tocar
    Exibir acordes »
    publicidade
    fechar