Horizonte Distante

Marcelo Camelo

 Marcelo Camelo
Tom: A
		
Intro:

  F#m 
e|-------------------------------------------|
B|-------------------------------------------|
G|-------------------------------------------|
D|-4-4-4-4-4-4-4-4-4-4-4-4-4-4-4-4-4-4-4-4---|
A|-4-4-4-4-4-4-4-4-4-4-4-4-4-4-4-4-4-4-4-4---|  
E|-2-2-2-2-2-2-0-2-2-2-2-0-2-0-2-2-2-2-2-2---|    


continua assim até a próxima nota

 F#m
                    
  Por onde vou guiar
      D                      F#m
  O olhar que não enxerga mais
                           A
  Dá-me luz, ó deus do tempo
                           D 
  Dá-me luz, ó deus do tempo
                     G    
  Nesse momento menor
                     A
  Pr'eu saber seu redor

               Dm
  A gente quer ver
                F
  Horizonte distante
               Dm
  A gente quer ver
                F
  Horizonte distante
       G    G A Bb ; C# E
  Aprumar

SOLO

 Dm
  só o som do baixo
                            

                              Dm Dm7                    Dm           G#º      Dm          G
E|-------------------------------------------------------------------------5-4-------------------|
B|-------------3(bend)3-1-3----------------------3(bend)3-1-3----6-3-6-3-6--------6-3-6-3-6-3-3--|
G|---------2-5-------------------------------2-5----------------------------------------------0--|
D|-----2-5-------------------------------2-5--------------------------------------------------5--|
A|-3-5-------------------------------3-5---------------------------------------------------------|
E|-----------------------------------------------------------------------------------------------|


C              E7
  Através eu vi
                   G
  Só o amor é luz
                     F
  E há de estar daqui
                  C
  Até alto e amanhã
             E7 
  Quem fica com o tempo
 G
  Eu faço dele meu
     A
  E não me falta o passo, coração
     A
  E não me falta o passo, coração
  A7
  Avante
                Dm
  A gente quer ver
               F
  Horizonte distante
                Dm
  A gente quer ver
               F
  Horizonte distante
       G    G A Bb ; C# E
  Aprumar
4.145 exibições

Comentários 0

Consegui tocarAinda não conseguiram tocar essa música. Seja o primeiro!
    Não consegui tocar
    Exibir acordes »
    publicidade
    fechar