Marcelo Camelo

Menina Bordada

21.063 exibições
Tom: F#
Intro : ( Riff1 ) 2x
	  Riff2
											      
Riff1

E|----------9~--11--9~-----------------------------------------   
B|-11~--12-11~--12-11~--12--11~---11~--12~--11~--9--7~---------	  
G|-11~--13--------------13--11~---11~--13~--11~--8--6~---------	   
D|-------------------------------------------------------------	   
A|-------------------------------------------------------------
E|-------------------------------------------------------------  


Riff2

E|-6~--6---6----------------6~--6---6--------------------------
B|-7~----7---7----9/11/9~---7~----7---7----9/11/9~-------------
G|-6~----------6--8/10/8~---6~---------6---8/10/8~-------------
D|-------------------------------------------------------------
A|-------------------------------------------------------------
E|-------------------------------------------------------------


E|-6~--6---6---------------6~----------------------------------
B|-7~----7---7----9/11/9~--7~----------------------------------
G|-6~----------6--8/10/8~--6~-----4--3-------------------------
D|--------------------------------------6----------------------
A|-------------------------------------------------------------
E|-------------------------------------------------------------


E|-6~--6---6---------------6~--6---6---------------------------
B|-7~----7---7----9/11/9~--7~----7---7----9/11/9~--------------
G|-6~----------6--8/10/8~--6~----------6--8/10/8~--------------
D|-4~----------------------------------------------------------
A|-------------------------------------------------------------
E|-------------------------------------------------------------


E|-6~--6---6---------------11~---11--12--11--9-----------------
B|-7~----7---7----9/11/9~--=9~---11--11--11--11--11--9~--------
G|-6~----------6--8/10/8~------------------------10--8~--------
D|-------------------------------------------------------------
A|-------------------------------------------------------------
E|-------------------------------------------------------------


E|-----10--9---------------------------------------------------
B|-12--12--12-12--9--------------------------------------------
G|-11---------11--8--------------------------------------------
D|-------------------------------------------------------------
A|-------------------------------------------------------------
E|-------------------------------------------------------------



Riff3

E|-6~--6---6---------------6~--6---6------7/9/7~---------------
B|-7~----7---7----9/11/9~--7~----7---7----7/9/7~---------------
G|-6~----------6--8/10/8~--6~----------6-----------------------
D|-------------------------------------------------------------
A|-------------------------------------------------------------
E|-------------------------------------------------------------


E|-6~--6---6---------------6~----------------------------------
B|-7~----7---7----9/11/9~--7~----------------------------------
G|-6~----------6--8/10/8~--6~----------------------------------
D|-------------------------------------------------------------
A|-------------------------------------------------------------
E|-------------------------------------------------------------


Riff4

E|-------------------------------------------------------------
B|----------------------------------------------4---4----------
G|-----6-----------------------6-----------6~-----3~--3~-------
D|-6h8---8-6h4----4-6h8~---6h8---8-6h4---4----------------6--4~
A|--------------6----------------------6-----------------------
E|-------------------------------------------------------------


   F#			  A#m		|
Menina bonita bordada de flor		|
   F# 			  A#m		|
Menina bonita bordada de flor	        |
 	  F#         			|  2x juntamente com o Riff1
Eu vi primeiro				|
 	  D#m   			|
Eu vi primeiro				|

 	  C#       			|
Eu vi primeiro			        |


D#m	      B      F#
Todo encanto dessa moça
	      B      F#
Todo encanto dessa moça
            G#m   A#m  B      A#m
Vai ver era só dizer a ela assim:
     D#m         G#   A  G#  F#  D#  F#
-Oi Moça, por favor, cuida   bem de mim

( Riff3 ) 2x

F#
Menina bonita bordada de flor			
Menina bonita bordada de flor			
Eu vi primeiro						
Eu vi primeiro						
Eu vi primeiro	

  F#			  A#m
Menina bonita bordada de flor			
  F# 			  A#m
Menina bonita bordada de flor			
	  F#
Eu vi primeiro						
	  D#m
Eu vi primeiro						
	  C#
Eu vi primeiro					    

D#m	      B      F#
Todo encanto dessa moça
	      B      F#
Todo encanto dessa moça
            G#m   A#m  B      A#m
Vai ver era só dizer a ela assim:
     D#m         G#   A  G#  F#  D#  F#
-Oi Moça, por favor, cuida   bem de mim

  Riff2
( Riff4 ) 2X
    Composição: Marcelo CameloColaboração e revisão:
    • chris
    • Vinicius Gusmão

    Comentários 0

    140 .
    140 cancelar

    conseguiu tocar?

    covers

    Grave um vídeo tocando Menina Bordada e mande pra gente!

    Ex.: http://www.youtube.com/watch?v=0IvSvIwGdwk
    ver covers de outras músicas »
    0:00 / 0:00

    Capítulos

      1 versão de violão dificuldade exibições contribuição e correção
      1 versão de guitarra dificuldade exibições contribuição e correção
      1 versão de cavaco dificuldade exibições contribuição e correção
      1 versão de teclado dificuldade exibições contribuição e correção
      play/pausefechar subir/descer velocidade
      6ª corda E5ª corda A4ª corda D3ª corda G2ª corda B1ª corda E
        acordes
        publicidad
        fechar
        ok