Menina Bordada

Marcelo Camelo

 Marcelo Camelo Compositor: Marcelo Camelo
Tom: F#
		
Intro : ( Riff1 ) 2x
	  Riff2
											      
Riff1

e|----------9~--11--9~-----------------------------------------   
B|-11~--12--9~--11--9~--12--11~---11~--12~--11~--9--7~---------	  
G|-11~--13--------------13--11~---11~--13~--11~--8--6~---------	   
D|-------------------------------------------------------------	   
A|-------------------------------------------------------------
E|-------------------------------------------------------------  


Riff2

e|-6~--6---6------7/9/7~---6~--6---6------7/9/7~---------------
B|-7~----7---7----7/9/7~---7~----7---7----7/9/7~---------------
G|-6~----------6-----------6~----------6-----------------------
D|-------------------------------------------------------------
A|-------------------------------------------------------------
E|-------------------------------------------------------------



e|-6~--6---6------7/9/7~---6~----------------------------------
B|-7~----7---7----7/9/7~---7~----------------------------------
G|-6~----------6-----------6~-----4--3-------------------------
D|--------------------------------------6----------------------
A|-------------------------------------------------------------
E|-------------------------------------------------------------



e|-6~--6---6------7/9/7~---6~--6---6------7/9/7~---------------
B|-7~----7---7----7/9/7~---7~----7---7----7/9/7~---------------
G|-6~----------6-----------6~----------6-----------------------
D|-------------------------------------------------------------
A|-4-----------------------------------------------------------
E|-------------------------------------------------------------



e|-6~--6---6------7/9/7~---7/9--9~---11--12--11--9-------------
B|-7~----7---7----7/9/7~---7/9--11~--11--11--11--11-11--9~-----
G|-6~----------6----------------10~-----------------10--8~-----
D|-------------------------------------------------------------
A|-------------------------------------------------------------
E|-------------------------------------------------------------



e|-----10--9---------------------------------------------------
B|-12--12--12-12--9--------------------------------------------
G|-11---------11--8--------------------------------------------
D|-------------------------------------------------------------
A|-------------------------------------------------------------
E|-------------------------------------------------------------



Riff3

e|-6~--6---6------7/9/7~---6~--6---6------7/9/7~---------------
B|-7~----7---7----7/9/7~---7~----7---7----7/9/7~---------------
G|-6~----------6-----------6~----------6-----------------------
D|-------------------------------------------------------------
A|-------------------------------------------------------------
E|-------------------------------------------------------------



e|-6~--6---6------7/9/7~---6~----------------------------------
B|-7~----7---7----7/9/7~---7~----------------------------------
G|-6~----------6-----------6~----------------------------------
D|-------------------------------------------------------------
A|-------------------------------------------------------------
E|-------------------------------------------------------------


Riff4

e|-------------------------------------------------------------
B|----------------------------------------------4---4----------
G|-----6-----------------------6-----------6~-----3~--3~-------
D|-6h8---8-6h4----4-6h8~---6h8---8-6h4---4----------------6--4~
A|--------------6----------------------6-----------------------
E|-------------------------------------------------------------


  F#			  A#m		|
Menina bonita bordada de flor		|
  F# 			  A#m		|
Menina bonita bordada de flor	        |
	  F#         			|  2x juntamente com o Riff1
Eu vi primeiro				|
	  D#m   			|
Eu vi primeiro				|

	  C#       			|
Eu vi primeiro			        |


D#m	      B      F#
Todo encanto dessa moça
	      B      F#
Todo encanto dessa moça
            G#m   A#m  B      A#m
Vai ver era só dizer a ela assim:
     D#m         G#   A  G#  F#  D#  F#
-Oi Moça, por favor, cuida   bem de mim

( Riff3 ) 2x

F#					  		
Menina bonita bordada de flor			
Menina bonita bordada de flor			
Eu vi primeiro						
Eu vi primeiro						
Eu vi primeiro	

  F#			  A#m		
Menina bonita bordada de flor			
  F# 			  A#m		
Menina bonita bordada de flor			
	  F#						
Eu vi primeiro						
	  D#m						
Eu vi primeiro						
	  C#						
Eu vi primeiro					    

D#m	      B      F#
Todo encanto dessa moça
	      B      F#
Todo encanto dessa moça
            G#m   A#m  B      A#m
Vai ver era só dizer a ela assim:
     D#m         G#   A  G#  F#  D#  F#
-Oi Moça, por favor, cuida   bem de mim

  Riff2
( Riff4 ) 2X
18.534 exibições

Comentários 0

Composição: Dann Gallucci / Irwan Simanjuntak / Nigel Hendroff
Esse não é o compositor? Avise-nos.
Contribuição: Vinicius Gusmão
Consegui tocarAinda não conseguiram tocar essa música. Seja o primeiro!
    Não consegui tocar
    Exibir acordes »
    publicidade
    fechar