Vida Doce

Marcelo Camelo

 Marcelo Camelo
Tom: D
		
intro: D7+ (tab 1)
F#m7 Fm7 Em7 (F#m7) Gm7 F#m7 B7 Em7 A7 D7+

Ponte: E7+ F7+ F#7+ G7+

G7+
Toda beira é final de dois
F#m7
Eu deixo tudo sempre pra fazer mais tarde
G7+
Assim eu caminho no tempo que bem entender
A7+
Afinal, faz parte de mim ser assim
Bm7 Em7
Mais um pouco e vai dar sinal
Bm7 D7+
Brinco de esconder (ô ô ô ô)
G7+
Caminho de pé e não vou mais
A7 A5+/7
Só no que a vida me traz

D7+ (durante essa parte faz tab 1, a mesma da intro)
Vida que é doce levar
Se o caminho é de fé
F#m7 (Fm7)
Diga que eu não vou
Em7 (F#7m) G7m F#7m
Onde voce for
B7
A vida me leva
Em7 A7 D7+
E todo sentimento me carrega
D7+ A7
Quem no balanço do mar caminha num baque só
D7+
Quem no balanço do mar caminha num baque só
A7
Vida que é doce levar avisa de lá que eu já sei
D7+ (continua abaixo)
Todo balanço que dá neste navegar naveguei

D7+ Bm7 G7m (na 10ªcasa)(tab2)  (na 12ªcasa) C#º (11ªcasa)
Bbº (8ªcasa)  (5ªcasa)  (2ªcasa)

TAB 3 (durante tab3: B7 Gm7 D7+ E7 A5+/7) depois volta junto com a banda:

D7+ Em7 A7 (4X) D7+ (C#) (C) B7 Em7 A7 D7+ D D/C# D/C D/B D/Bb D/A (vai descendo o baixo do acorde)

E7 (tab4) A7 A5+/7 D


      TAB 1 F#m7
E |------------------------7-----5---------------------------
B |-------------7------------------------7-----7~~8-8-7------
G |----------7-----7---7---7-6---6----7-----7------------9-7-
D|5~~7-------------------------------0-----0-----------------


TAB 2

      Gm7  C#º Bbº   (vai parando)
E |10-10----------13----------13-12---------------------13-------
B |--------13-11----------12-----------15-13-------12------------
G |---------------------13----------------------14-13------------


TAB 3 (é aquela hora que para tudo)

      B7 Gm7 D7+ E7
E |--------0-------------------------------5----------------------3-----------------------------------
B |------2---3-2-----------------------7-----8-7------------3-----3-7----------------5----------5-----
G |----3---------4-3----------------5--------------4-----3---------------7------------------6--4---4--
D |--4----------------4-0---5~~7-------------------------------------------8-3~~5--------5------------
A |5-----------------------2--------------------------------------------------------------------------
E |---------------------------------------------------------------------------------------------------

depois desse solo entao A5+/7
TAB 4

      E7 A7 A5+/7 D
E |-----2-0-----------
B |---------3-2-1-----
G |--------------------
12.961 exibições

Comentários 0

Composição: Dann Gallucci / Irwan Simanjuntak / Nigel Hendroff
Esse não é o compositor? Avise-nos.
Contribuição: pv
Exibir acordes »
publicidade
fechar