Tua Fidelidade

Marcos Witt

 Marcos Witt
Tom: D
		
D                   Em     Em7
Tua Fidelidade    é Grande


E|------------------------7-------|
B|-7-7-7-8--10-10--10-10-----8----|
G|--------------------------------|
D|--------------------------------|
A|--------------------------------|
E|--------------------------------|


   A         A7     D           A/C#
   Tua Fidelidade   Incomparável é


E|-------------------------------------|
B|--------7-8-8---8-8--7-7-----7-------|
G|-9-9-9--------------------9-----9----|
D|-------------------------------------|
A|-------------------------------------|
E|-------------------------------------|


   Bm               Em           Em7
   Nada é como Tu,  Bendito Deus


E|----------------------------|
B|------------7---7-7-8-------|
G|-7-7-7--9--------------9----|
D|----------------------------|
A|----------------------------|
E|----------------------------|


   A        A7        D
   Grande é Tua Fidelidade.


E|--------------------------|
B|-7------------------------|
G|----9--7--6--7--9--7-7----|
D|--------------------------|
A|--------------------------|
E|--------------------------|
9.494 exibições

Comentários 0

Consegui tocarAinda não conseguiram tocar essa música. Seja o primeiro!
    Não consegui tocar
    Exibir acordes »
    publicidade
    fechar