Nunca Mais Me Deixe

Maria Cecília e Rodolfo

 Maria Cecília e Rodolfo
Tom: G
		
Intro:


 G                       D/F#
E|----------------------------------------------------|
B|----------------------------------------------------|
G|-7-7-7\5-5-5-5\4-4-4-------7-7-7\5-5-5-5\4-4-4------|
D|---------------------5h7-5---------------------7-7h9|
A|----------------------------------------------------|
E|----------------------------------------------------|



    Em             C
E|----------------------------------------------------|
B|------------8p7-7-----------------------------------|
G|----------7-----------------------------------------|
D|-7-5----9-------------------------------------------|
A|-----10---------------------------------------------|
E|----------------------------------------------------|



1ª Parte:

G
  Quero beijo para matar essa saudade
D/F#                                Em
     E calar a incerteza que me invadi
                  D
O que passou, passou

G
  Nada pode separar nossas almas
D/F#                                     Em
     Senta aqui, me da um abraço e se acalma
                D
Pra mim nada mudou

Pré-Refrão:

 G                         D/F#
Nós dois, olhando pro horizonte
           Em
Aonde o sol se esconde
                C
E vendo a lua aparecer

 G                 D/F#
Deixa o amor correr nas veias
                Em
Curar nossas feridas
              C      D
E o novo dia vai nascer

Refrão:

               G
Nunca mais me deixe assim
            D/F#
E nem fale de separação
              Em
já conheço a dor de te perder
             C
Eu já me perdi numa ilusão

            G
Juro nunca mais vou te deixar

            D/F#
Voce não merece a solidão
             Em
Me perdoa se eu te fiz chorar
            C            D
Eu preciso tanto do seu coração

Intro:


 G                       D/F#
E|----------------------------------------------------|
B|----------------------------------------------------|
G|-7-7-7\5-5-5-5\4-4-4-------7-7-7\5-5-5-5\4-4-4------|
D|---------------------5h7-5---------------------7-7h9|
A|----------------------------------------------------|
E|----------------------------------------------------|



    Em             C
E|----------------------------------------------------|
B|------------8p7-7-----------------------------------|
G|----------7-----------------------------------------|
D|-7-5----9-------------------------------------------|
A|-----10---------------------------------------------|
E|----------------------------------------------------|



Pré-Refrão:

 G                         D/F#
Nós dois, olhando pro horizonte
           Em
Aonde o sol se esconde
                C
E vendo a lua aparecer

 G                 D/F#
Deixa o amor correr nas veias
                Em
Curar nossas feridas
              C         D
E o novo dia vai nascer

Refrão:

               G
Nunca mais me deixe assim
            D/F#
E nem fale de separação
              Em
já conheço a dor de te perder
             C
Eu já me perdi numa ilusão

            G
Juro nunca mais vou te deixar
            D/F#
Voce não merece a solidão
             Em
Me perdoa se eu te fiz chorar
            C            D
Eu preciso tanto do seu coração

               G
Nunca mais me deixe assim
            D/F#
E nem fale de separação
              Em
já conheço a dor de te perder
             C
Eu já me perdi numa ilusão

            G
Juro nunca mais vou te deixar
            D/F#
Voce não merece a solidão
             Em
Me perdoa se eu te fiz chorar
            C            D   Em
Eu preciso tanto do seu coração

C          D          G
Oh oh oh, do seu coração
15.303 exibições

Comentários 2

  • tanata.santos tanata.santos: Postado em 26/02/2014 20:56

    amooo essa musica pfff faz um video aula para ela!!!!

  • Lucas Lucas: Postado em 21/01/2014 15:30

    Essa música é linda :)

Composição: Márcia Araújo / Fred / Gustavo / Marco Aurélio
Esse não é o compositor? Avise-nos.
Contribuição: Breno Bernardes
Exibir acordes »
publicidade
fechar