Maria Gadú

Amor de Índio

54.102 exibições
Tom: G
Intro:

      G                    C                  G                  C
E|--3---2--0-----------------------------|--2---3-----2---3--------------------------|
B|--3---------2---2----------------------|--3------3--3------------------------------|
G|------------------0----0---2---2/4--4--|--0---------0--------0---2---2/4--2--------|
D|-----------------------2---------------|---------------------2---------------------|
A|-----------------------3--3--3------3--|---------------------3--3---3-----3--------|
E|--3--3--3--3---3-----------------------|--3--3--3---3--3---------------------------|


G                  C9
Tudo o que move é sagrado


E|--0-----------------|
B|-----3--1--0--------|
G|--------------2--0--|
D|--------------------|
A|--------------------|
E|--------------------|


               G
E remove as montanhas
              C9
Com todo o cuidado, meu amor.
  Bm7
Enquanto a chama arder,
     C9
Todo dia te ver passar,
G                C9
Tudo viver ao teu lado


E|--0-----------------|
B|-----3--1--0--------|
G|--------------2--0--|
D|--------------------|
A|--------------------|
E|--------------------|


                 G
Com o arco da promessa
           C9
Do azul pintado pra durar.
  Bm7
Abelha fazendo mel
       C9
Vale o tempo que não voou
    Bm7
A estrela caiu do céu
    C9
O pedido que se pensou
    Em7
O destino que se cumpriu
     Bm7
De sentir seu calor e ser todo


E|--2----0---2---3---2---3-----2-----0----------|
B|--3---3---3---3---3---3----3---3--------------|
G|--0--0---0---0---0---0-----------0------------|
D|----------------------------------------------|
A|--3------------------------------------3-2----|
E|-------------------------------------------0--|


     Em7
Todo dia é de viver
     Bm7               C9-  C9  C9-  C9 (2x)
Para ser o que for e ser tudo.

( G  C9  G  C9 )  (2x)

G                 C9
Sim, todo amor é sagrado
                G
E o fruto do trabalho
            C9
É mais que sagrado, meu amor.
  Bm7
A massa que faz o pão
       C9
Vale a luz do teu suor
G                    C9
Lembra que o sono é sagrado
                     G
E alimenta de horizontes
            C9
O tempo acordado de viver.

     Bm7
No inverno te proteger
     C9
No verão sair pra pescar,
     Bm7
No outono te conhecer,
     C9
Primavera poder gostar.
    Em7
No estio me derreter
      Bm7                  C9
Pra na chuva dançar e andar junto

     Em7
O destino que se cumpriu
      Bm7                C9-  C9  C9- C9 (2x)
De sentir teu calor e ser tudo.

G                 C9
Sim, todo amor é sagrado
                G9
E o fruto do trabalho...
    Composição: Beto GuedesColaboração e revisão:
    • marcinhoguitta
    • Láah

    Comentários 1

    • Láah Láah: Postado em 18/01/2012 18:21

      Só uma correção nos acordes de C5 e C5-
      C5 C5-
      e |--2-----3--|
      B |--3-----3--|
      G |--0-----0--|
      D |-------|
      A |--3----3--|

    conseguiu tocar?

    • Rayane Santos
    • Alice
    • Dandara
    • Rayssa
    • raayane
    • anajhow
    • palomalujambio
    • •••

    covers

    Grave um vídeo tocando Amor de Índio e mande pra gente!

    Ex.: http://www.youtube.com/watch?v=0IvSvIwGdwk
    ver covers de outras músicas »
    0:00 / 0:00

    Capítulos

      1 versão de violãodificuldadeexibiçõescontribuição e correção
      1 versão de guitarradificuldadeexibiçõescontribuição e correção
      1 versão de cavacodificuldadeexibiçõescontribuição e correção
      1 versão de tecladodificuldadeexibiçõescontribuição e correção
      play/pausefechar subir/descer velocidade
      6ª corda E5ª corda A4ª corda D3ª corda G2ª corda B1ª corda E
        acordes
        publicidad
        fechar
        ok