Sunday Morning

Maroon 5

 Maroon 5
Tom: C
		
Intro: Dm7/9    G7/13        C7M/9

 Dm7/9       G7/13           C7M/9
      Sunday morning rain is falling
Dm7/9       G7/13           C7M/9
Steal some covers share some skin
Dm7/9       G7/13           C7M/9
Clouds are shrouding us in moments unforgettable
      Dm7/9       G7/13           C7M/9
You twist to fit the mold that I am in
      Dm7/9       G7/13           C7M/9
But things just get so crazy living life gets hard to do
               Dm7/9       G7/13           C7M/9
And I would gladly hit the road get up and go if I knew
           Dm7/9       G7/13           C7M/9
That some day it would lead me back to you
That some day it would lead me back to you

(refrão)
 Dm7/9  G7/13 C7M/9
That may be all I need In darkness she is all I see
Come and rest your bones with me
Driving slow on Sunday Morning and I never want to leave

Dm7/9         G7/13            C7M/9   Dm7/9       G7/13           C7M/9
      Fingers trace your every outline     Paint a picture with my hands
Dm7/9       G7/13              C7M/9
   Back and forth we sway like branches in a storm
             Dm7/9       G7/13            C7M/9
Change of weather, still together when it ends.

(refrão)

(interlude)

---------------- ---------------------- ----------------
---------------- ---------------------- ----------------
---------------- ---------------------- ----------------
-----1-2--2p0----- ---------------------- ----------------
-3------------0- --2h3----2h3----2h3--- ------------2-3--
---------------- ------3------2------1- --1--3--1h3-----



                                                 C7M/9   Dm7/9
---------------- ---------------------- --------- -----------
---------------- ---------------------- --------- -3------5--
---------------- ---------------------- --------- -4------5--
-----1-2--2p0--- ---------------------- --------- -2------3--
--------------0- --2h3----2h3----2h3--- --------- -3------5--
---------------- ------3------2------1- -1--3---- -----------


      Dm7/9       G7/13                C7M/9
But things just get so crazy, living life gets hard to do,
       Dm7/9       G7/13                C7M/9
Sunday morning, rain is falling, and I'm calling out to you.
       Dm7/9       G7/13                C7M/9
Singing someday it'll bring me back to you,
      Dm7/9       G7/13                C7M/9
find a way to bring myself back home to you.

(refrão)

Comentários 5

  • guiguizaao guiguizaao: Postado em 29/10/2012 22:17

    qual a batida ??

    • Gustavo Gustavo: Postado em 27/07/2013 13:11

      Você pode tocar uma para baixo em cada acorde e no refrão tocar o seguinte: (Dm7) BB (G) CCB C (C9) BB CCB C

  • guittarist guittarist: Postado em 17/05/2012 12:03

    gente essa musica são para aqueles que já sabem batidas então não recomendo para iniciantes pode tb se tocar com Gm11 , D6 G#7m...

  • chocopai chocopai: Postado em 26/10/2011 21:45


    fica dica pra quem não consegue tocar desse jeito do cifra Prefiro Dm7, G , C

    • Renan Renan: Postado em 29/11/2011 21:25

      valeu mesmo parceiro!

Composição: Michelle Lewis / Paul Stanley / Sawao Yamanaka / Takeshi Ueda
Esse não é o compositor? Avise-nos.
Contribuição: cacaia Correções: sf.guilherme , cacaia e mais 2 »
Exibir acordes »
publicidade
fechar