Pé do Meu Samba

Mart'nália

 Mart'nália Compositor: Caetano Veloso
Tom: D
		
(intro) F#m7(11)  B7(b9)  Em7(9) Em7(9) A74(9) A7(9)
        D/A  Ab7(#11) G7M G#º D/A Bm7 Em7 F#7 Bm7 F#7


E|--14----15-14-12-------------12-12-10-12h14-14-12-10--10-10-9-8--|
B|-----12----------12----------------------------------------------|
G|---------------------12-11 9-------------------------------------|
D|-----------------------------------------------------------------|
A|-----------------------------------------------------------------|
E|-----------------------------------------------------------------|



E|--10-8-10h12-10----10-8-10h12-14h15-14-12-10---------------------|
B|--------------------12-------------------------------------------|
G|-----------------------------------------------------------------|
D|-----------------------------------------------------------------|
A|-----------------------------------------------------------------|
E|-----------------------------------------------------------------|



E|-12-12-12-10-12h10-9--5-7-8-10-9-7---------5---------------------|
B|---------------------------------------------5-7-8----8-7-5-7----|
G|-----------------------------------------------------------------|
D|-----------------------------------------------------------------|
A|-----------------------------------------------------------------|
E|-----------------------------------------------------------------|


Bm7                 Em7
Dez na maneira e no tom,
                F#7
Você é o cheiro bom
              Bm7          A7
Da madeira do meu violão
                  D6(9)/A
Você é a Festa da Penha,
                    F#7
A Feira de São Cristóvão,
             Bm7  B7(b13) Em7
É a Pedra do Sal
                   Bm7
Você é a Intrépida Trupe,
               G7M
A Lona de Guadalupe,
                     F#7(b13)
Você é o Leme e o Pontal
Bm7               Em7
Nunca me deixa na mão
            F#7
Você é a canção que consigo
     Bm7           A7
Escrever afinal
                D6(9)/A
Você é o Buraco Quente,
                F#7
A Casa da Mãe Joana,
               Bm7   B7(b13)  Em7
Você é Vila Isabel
                     Bm7
Você é o Largo Do Estácio,
               G7M
Curva de Copacabana
                    F#7(b13)
Tudo o que o Rio me deu!

F#m7(11) B7(b9) Em7(9)
Pé       do     meu samba
A7(9) A7(9)   D/A    Ab7(#11)
Chão do meu terreiro
G7M          G#º
Mão do meu carinho,                     (2x)
D/A             Bm7
Glória em meu outeiro
Em7            F#7
Tudo para o coração
           Bm7      F#7(b13) (Na segunda vez)
De um brasileiro

G7M          G#º
Mão do meu carinho,
D/A             Bm7
Glória em meu outeiro
Em7            F#7
Tudo para o coração
           Bm7      F#7(b13)
De um brasileiro

Em7            F#7
Tudo para o coração                    (2x)
           Bm7     ( G7M G#º Bm7 )
De um brasileiro
17.998 exibições

Comentários 0

Composição: Caetano Veloso
Esse não é o compositor? Avise-nos.
Contribuição: leonelcaue Correções: waldemar rodrigues e mais 1 »
Consegui tocarAinda não conseguiram tocar essa música. Seja o primeiro!
    Não consegui tocar
    Exibir acordes »
    publicidade
    fechar