Metal Is The Law

Massacration

 Massacration
Tom: G
		
Introdução:

''Ai, aiaiai, aiaiaiaiaiaiai em cima em baixo e puxa e vai...''
Riff 1

e|-----------------------------------------------------------------|
B|-----------------------------------------------------------------|
G|-----------------------------------------------------------------|
D|-9--99999999--999--9999999999--9-9-9-9-9-9-9-7-9-7-9-7-9-7-------|4X
A|-7--77777777--777--7777777777--7-7-7-7-7-7-7-5-7-5-7-5-7-5-------|
E|-----------------------------------------------------------------|
      |-------|      |--------|

         PM              PM 




''If You Want To Be Metal...''
Riff 2

e|-----------------------------------------------------------------|
B|-----------------------------------------------------------------|
G|-----------------------------------------------------------------|
D|-----------------------------------------------------------------|
A|-5--------6X--7-777777-7-77-7------------------------------------|
E|-3000000------5-555555-5-55-5------------------------------------|

    |----|        |----|   ||
      PM            PM     PM



''And That's What I Say...''
Riff 3

e|-----------------------------------------------------------------|
B|-----------------------------------------------------------------|
G|-----------------------------------------------------------------|
D|-5-4-----5-4-5-7------5-4-----5-4-5-7-5-4----4--4----------------|
A|-3-22222-3-2-3-5--2X--3-22222-3-2-3-5-3-222222222----------------|
E|-----------------------------------------------------------------|

      |--|                 |--|            |--| ||   
       PM                   PM              PM  PM

Refrão:

''Metal Is The Law...''
Riff 4

e|---------------------------------------------------------|
B|---------------------------------------------------------|
G|---------------------------------------------------------|
D|-2----5---7--------2---7---5-----------------------------|
A|-2----3---5---3X---2---5---3-----------------------------|
E|-0-----------------0-------------------------------------|



No final é tocado o Riff 2 e termina assim ...


e|-----------------------------------------------------------------|
B|-----------------------------------------------------------------|
G|-----------------------------------------------------------------|
D|-------------------------------8-9-------------------------------|
A|-5--------6X--7-777777-7-77-7--6-7-------------------------------|
E|-3000000------5-555555-5-55-5------------------------------------|

    |----|        |----|   ||
      PM            PM     PM


A música segue essa ordem ...

Riff 1
Riff 2
Riff 1
Riff 2
Riff 3
Riff 2
Riff 3
Riff 4
Riff 2
Riff 3
Riff 4
Riff 1
Riff 2

PM = Palm Mute

Comentários 18

  • walter_10 walter_10: Postado em 16/10/2014 23:02

    Só não sei pra que video aula, a tab tá totalmente compreensível, bem fácil e certinha

  • Anderson Anderson: Postado em 13/09/2014 13:19

    mds que video aula o que? ta super facil essa tab

  • vinyhendrix vinyhendrix: Postado em 19/12/2012 18:22

    so falta solo mas a musica mt facil po , pra que video aula

    • falon.aiy falon.aiy: Postado em 10/01/2014 20:19

      que solo noob?

  • antiilluminati antiilluminati: Postado em 21/11/2012 14:40

    video aulaaaaaaaaa

  • Matheus Matheus: Postado em 24/09/2012 15:09

    video aula

  • tucky tucky: Postado em 27/07/2012 02:34

    video aula dessa musica ela e muito foda

  • tucky tucky: Postado em 25/07/2012 04:44

    galera do cifra club coloca video aula dessa musica por favor !! esssa e foda ela merece !!kkkkkkkkkkkkkk

  • Guill N´ Roses Guill N´ Roses: Postado em 14/01/2012 11:40

    mal da pra entender essa tab, precisamos de video aulaaaaaaaaaa! vamo bota nossos email ali, pq só assim eles vêem nossas petições

  • muriloheavy muriloheavy: Postado em 20/12/2011 16:18

    VIDEO AULA !!!!!!

Exibindo 10 de 18 comentários Mostrar mais ver todos »
Composição: Bruno Sutter
Esse não é o compositor? Avise-nos.
Contribuição: Slipknótico Correções: _thiagomf »
Exibir acordes »
publicidade
fechar