Busted

Matanza

 Matanza Compositor: Johnny Cash
Tom: A
Afinação: Eb Ab Db Gb Bb Eb
		

    A                          E                         D
Eb|-------------------------|-------------------------|------------------------|
Bb|-------------------------|-------------------------|------------------------|
Gb|-------------------------|-------------------------|------------------------|
Db|---7------7-------7------|---9-6----9-6-----9-6----|---7-4----7-4----7-4----|
Ab|----7------7-------7-----|--7------7-------7-------|--5------5------5-------|
Eb|--5------5------5--------|-------------------------|------------------------|


   A                                               E
My bills are all do mine baby need shoes but I'm Busted
                                            A
Cotton is down to a quarter a pound and I'm Busted
I got a cow that went dry and a hen that won't lay               
         D                                                         
A big stack of bills that grow bigger each day                  
     E                                      A       ( A D E D A ) 
The county will haul my belongin's away I'm Busted.  (2x)
 

  ( A  D   E      E D )
Eb|-------------------------------
Bb|-------------------------------                                                                
Gb|-------------------------------
Db|------4------------------------
Ab|----55--7-777--7-5-4-----------
Eb|-555---------------------------


  A                                     E                       
I call to my brother to ask for a loan I'm Busted               
                                            A
I hate to beg like a dog for a bone but I'm Busted
He said:"Hey little brother there ain't a thing I can do
   D
My kids and my wife are all down with the flu
    E                                         A     ( A D E D A )
And I was just thinkin' of callin' on you I'm Busted."


Eb|--------------------------------------------
Bb|--------------------------------------------
Gb|--------------------------------------------
Db|-------4----------------------4------6/7~~--
Ab|-----55--7-777-7-5-4--------55--7-----------
Eb|--555--------------------555----------------
15.302 exibições

Comentários 0

Composição: Johnny cash
Esse não é o compositor? Avise-nos.
Contribuição: chilik's$ Correções: Zim »
Exibir acordes »
publicidade
fechar