Clube dos Canalhas

Matanza

 Matanza
Introdução (guitarra)

G|-----------------------------|-------------|
D|---------------------------4-|-------------|   (2x)
A|-------2-2-2-2-----------0---|-------------|
E|-2-2-2-2-------2-4-2-5-2-----|-2-4-2-5-2-0-|

G|---------------|
D|---------------|
A|-------2-2-2-2-|
E|-2-2-2-2-------|

G|---------------------------------------|
D|---------------------------------------|
A|-00000000--22222222--------------------|
E|--------------------22----------5-4-2-0|

G|---------------------------------------------------------|   
D|---------------------------------------------------------|      
A|-00000000-22222222-------------------00000000-22222222---|   
E|-------------------22222222-22222222---------------------|   

G|-------------------------------------|
D|-------------------------------------|      
A|-00000000-22222222-------------------| 
E|-------------------22222222-22222222-|   

G|------------------------|
D|------4-----------------|         
A|-----0------------------|
E|-2-4-2-5-2--2-4-2-5-2-0-|

G|-------------------------------------|
D|-------------------------------------|     Espera guitarra tocar riff 1 e 2.
A|-00000000-22222222-------------------| 
E|-------------------22222222-22222222-|   

G|---------------------|--------|
D|-------------------4-|--------|          (2x)
A|-------22-22------0--|--------|
E|-22-22-------24252---|-242520-|

G|-------------|
D|-------------|
A|-------22-22-|
E|-22-22-------|

G|---------------------------|
D|---------------------------|     Guitarra Toca Introdução     
A|-00000000--22222222--------|
E|--------------------22-5420|    

G|---------------------|--------|
D|-------------------4-|--------|          (2x)
A|-------22-22------0--|--------|
E|-22-22-------24252---|-242520-|

G|-------------|
D|-------------|
A|-------22-22-|
E|-22-22-------|

G|------------------------------------|
D|------------------------------------|
A|-00000000--22222222-----------------|
E|--------------------22----------5420|

G|---------------------------------------------------------|   
D|---------------------------------------------------------|      
A|-00000000-22222222-------------------00000000-22222222---|   
E|-------------------22222222-22222222---------------------|   

G|-------------------------------------|
D|-------------------------------------|      
A|-00000000-22222222-------------------| 
E|-------------------22222222-22222222-|   

G|----------------|
D|-------4--------|         
A|------0---------|
E|-24252---242520-|

G|-------------------------------------|
D|-------------------------------------|     Espera guitarra tocar riff 1 e 2.
A|-00000000-22222222-------------------| 
E|-------------------22222222-22222222-|   

G|---------------------|--------|
D|-------------------4-|--------|          (2x)
A|-------22-22------0--|--------|
E|-22-22-------24252---|-242520-|

G|-------------|
D|-------------|
A|-------22-22-|
E|-22-22-------|

G|---------------------------|
D|---------------------------|       
A|-00000000--22222222--------|
E|--------------------2-2-5-4-2-0|    

G|---------------|
D|------4--------|  (3x)       
A|-----0---------|
E|-2-4-2-5-2-0---|

G|-------------|
D|-------------|          
A|-------------|
E|-2-4-2-5-2-0-|

G|--------------|
D|--------------|
A|-------2------|
E|-2-2--------2-|

Comentários 0

Composição: Sabe quem é o compositor? Envie pra gente. Contribuição: JPedro Correções: Marcos e mais 1 »
publicidade
fechar