Pé na porta, e soco na cara

Matanza

 Matanza
Tom: F
		
Intro / Riff:

E|-----------------|
B|-----------------|
G|-----------------|
D|------3----------|
A|--x-x-1-3-x-3-x-3|
E|--x-x---1-x-1-x-1|


(Riff)
Pra quem ja viu num passa do imbecil
Não tem ninguém com quem esteja de bem

Bb C      Bb C
   Não te peço cosideração
(Riff)
Ou voce tem ou não
Bb C      Bb C
   Antes havia mais gente ao redor
(Riff)
Hoje é cada vez mais só

Ab          Bb
  E toda paciência um dia chega ao fim
(Riff)
Ab          Bb                         C
  Inevitavelmente isso termina assiiiiiiiim

Refrão:
F Bb C Bb
Ôôôôôôôôô na cara reto que arrebenta o nariz
essa noite vai dormir feliz                 
F               Ab      Bb                
Pé na porta, e soco na cara                

Intro 2x

(Riff)
Achou por bem acabar com o dia de alguém
Então sendo assim tinha que escolher justo a mim

Bb C                  Bb C
   Conto o que eu não tenho diz o que eu não posso
(Riff)
O que é meu é meu o que é seu é nosso
Bb C                  Bb C
  Qualquer infeliz tem mais o que fazer
(Riff)
Só voce não parece ter

Ab              Bb
E eu não tenho nada mais a lhe dizer
(Riff)
Ab             Bb                   C
O papo com voce agora tem que seeeeeeeeer
Solo:

E|-----------------------------------------------------------------------|
B|-----------------------------------------------------------------------|
G|-5-5-5-5-5-3-2-3-2---2-2-9-9-9-9-9-7-6-6\4\3-3-4\3-3-4\3---------------|
D|------------------3-3-----------------------------------10-10-10-10-10-|
A|-----------------------------------------------------------------------|
E|-----------------------------------------------------------------------|



E|-----------------------------------------------------------------------|
B|-----------------------------------------------------------------------|
G|-----------------------------------------------------------------------|
D|-8-7-8-7--------------------3-------------7-8-8/10-10-10-10-10-8-7-8-7-|
A|--------8-8-10-8-8\6-6-6-1/3-3-3/8-8-8-8-8-8-8-------------------------|
E|-----------------------------------------------------------------------|



E|-----------------------------------------------------------------------|
B|-----------------------------------------------------------------------|
G|------------------------------------8-8-8-8-8-10-10-10-10-10-----------|
D|--8/10-10-10-10-10-8/10-10-10-10-10------------------------------------|
A|-----------------------------------------------------------------------|
E|-----------------------------------------------------------------------|



E|-----------------------------------------------------------------------|
B|-13-13-13-13-13-11-10-11-10-----11-------------------------------------|
G|---------------------------10-10--10\8-8-8-------------5-5-5-5-5-5-5-5-|
D|------------------------------------------10/11-10-8-6-5-5-5-5-5-5-5-5-|
A|-------------------------------------------------------3-3-3-3-3-3-3-3-|
E|-----------------------------------------------------------------------|

Texto Colunas
Alterar tom ½ tom ½ tom
afinação acordes na letra esconder tabs mais »
81.836 exibições

Comentários (2)

  • nelsonnls nelsonnls: Postado em 03/01/2014 14:18

    Esse solo não esta 100%, falta um finalzinho e uns reparo.

  • Ivan Deff Ivan Deff: Postado em 14/08/2011 10:55

    Música facinha essa, o foda pra mim foi só fazer o riff e cantar ao mesmo tempo, tirando isso...

Composição: Sabe quem é o compositor? Envie pra gente. Contribuição: Gaspa Correções: dudu , gabrielfox e mais 2 »
  1. Tudo Que Você Quiser - Luan Santana Manteve-se 6.004 exibições
  2. Lepo Lepo - Psirico Manteve-se 4.431 exibições
  3. Mozão - Lucas Lucco Manteve-se 4.139 exibições
  4. Logo Eu - Jorge e Mateus Manteve-se 3.880 exibições
  5. Gaveta - Fernando e Sorocaba Manteve-se 3.331 exibições
  6. Pra Você - Onze:20 Manteve-se 3.309 exibições
  7. Só Os Loucos Sabem - Charlie Brown Jr. Manteve-se 3.010 exibições
  8. Tempo Perdido - Legião Urbana Manteve-se 2.530 exibições
  9. Fui Fiel - Gusttavo Lima Manteve-se 2.507 exibições
  10. Na Linha do Tempo - Victor e Leo Manteve-se 2.140 exibições
  1. Jorge e Mateus- Manteve-se 23.268 exibições
  2. Legião Urbana- Manteve-se 20.589 exibições
  3. Luan Santana- Manteve-se 17.386 exibições
  4. Charlie Brown Jr.- Manteve-se 17.172 exibições
  5. Fernandinho- Manteve-se 14.617 exibições
  6. Thalles Roberto- Manteve-se 11.189 exibições
  7. Católicas- Manteve-se 11.033 exibições
  8. Gusttavo Lima- Manteve-se 10.465 exibições
  9. Victor e Leo- Manteve-se 10.434 exibições
  10. Aline Barros- Manteve-se 10.076 exibições
Exibir acordes »

Cifras e tabs

Fórum Cifra Club

Aprenda

Cifra Club News

Mais Serviços Cifra Club ID

Studio Sol

©1996 - 2014 Cifra Club · o primeiro, maior e mais acessado do Brasil · 329 mil músicas · 5.9 milhões pessoas cadastradas

publicidade
fechar