Quanto Mais Feio

Matanza

 Matanza
Intro
G---------------------------------------------------------
D---------------------------------------------------------
A--/14-2-222-------2-222-------2-222-------2-222-------2--
E------------22222-------22222-------22222-------22222----

Verso (2x)
G---------------------------------------------------
D---------------------------------------------------
A---2-222-------2-222-------2-222-------2-222-------
E---------22222-------22222-------22222-------22222-

G--------------------------------------------------------
D---------------------------------------2-4-44-2-4-2-----
A---2-222-------2-222-------2-222--------------------4-2-
E---------22222-------22222-------22222------------------

Refrão
G----------------------------------------------------------
D----------------------------------------------------------
A----------------------------------2-222-------2-222-------
E-0-0-0-0-0-0-0-0--0-0-0-0-0-0-0-0-------22222-------22222-

G--------------------------------------------------------------------
D--------------------------------------------------------------------
A-----------------------------------4-4-4-4-4-4-4-4------------------
E-0-0-0-0-0-0-0-0--0-0-0-0-0-0-0-0-------------------2-2-2-2-2-2-2-2-

Intro
G-----------------------------------------------------
D-----------------------------------------------------
A--2-222-------2-222-------2-222-------2-222-------2--
E--------22222-------22222-------22222-------22222----

Verso (2x)
G---------------------------------------------------
D---------------------------------------------------
A---2-222-------2-222-------2-222-------2-222-------
E---------22222-------22222-------22222-------22222-

G---------------------------------------------------
D---------------------------------------------------
A---2-222-------2-222-------2-222-------2-222-------
E---------22222-------22222-------22222-------22222-

Refrão
G----------------------------------------------------------
D----------------------------------------------------------
A----------------------------------2-222-------2-222-------
E-0-0-0-0-0-0-0-0--0-0-0-0-0-0-0-0-------22222-------22222-

G--------------------------------------------------------------------
D--------------------------------------------------------------------
A-----------------------------------4-4-4-4-4-4-4-4------------------
E-0-0-0-0-0-0-0-0--0-0-0-0-0-0-0-0-------------------2-2-2-2-2-2-2-2-

G-----------------------------------------------------------
D-----------------------------------------------------------
A-5-5-5-5-5-5-5-5--7-7-7-7-7-7-7-7--2-222-------2-222-------
E-----------------------------------------22222-------22222-

G----------------------------------------------------
D----------------------------------------------------
A-5-5-5-5-5-5-5-5--7-7-7-7-7-7-7-7--9-9-9-9-9-9-9-9--
E----------------------------------------------------

Solo
G--------------------------------------------------------------------------------------
D--------------------------------------------------------------------------------------
A-2-222--------2-222--------2-222--------2-222--------5-5-5-5-5-5-5-5--7-7-7-7-7-7-7-7-
E-------22222--------22222--------22222--------22222-----------------------------------

G------------------------------------------------------------------------------------------------
D-------------------------------------------------------------------------------2-4-44-2-4-2-----
A---2-222-------2-222--------5-5-5-5-5-5-5-5--7-7-7-7-7-7-7-7--9-9-9-9-9-9-9-9---------------4-2-
E---------22222-------22222----------------------------------------------------------------------

Verso (2x)
G---------------------------------------------------
D---------------------------------------------------
A---2-222-------2-222-------2-222-------2-222-------
E---------22222-------22222-------22222-------22222-

G--------------------------------------------------------
D---------------------------------------2-4-44-2-4-2-----
A---2-222-------2-222-------2-222--------------------4-2-
E---------22222-------22222-------22222------------------

Refrão
G----------------------------------------------------------
D----------------------------------------------------------
A----------------------------------2-222-------2-222-------
E-0-0-0-0-0-0-0-0--0-0-0-0-0-0-0-0-------22222-------22222-

G--------------------------------------------------------------------
D--------------------------------------------------------------------
A-----------------------------------4-4-4-4-4-4-4-4------------------
E-0-0-0-0-0-0-0-0--0-0-0-0-0-0-0-0-------------------2-2-2-2-2-2-2-2-

G-----------------------------------------------------------
D-----------------------------------------------------------
A-5-5-5-5-5-5-5-5--7-7-7-7-7-7-7-7--2-222-------2-222-------
E-----------------------------------------22222-------22222-

G-------------------------------------------------------
D-------------------------------------------------------
A-5-5-5-5-5-5-5-5--7-7-7-7-7-7-7-7--22-0-22-0-22-0-22-0-
E-------------------------------------------------------

G-----------------------------------------------------------
D-----------------------------------------------------------
A-5-5-5-5-5-5-5-5--7-7-7-7-7-7-7-7--2-222-------2-222-------
E-----------------------------------------22222-------22222-

G----------------------------------------------------
D----------------------------------------------------
A-5-5-5-5-5-5-5-5--7-7-7-7-7-7-7-7--9-9-9-9-9-9-9-9--
E----------------------------------------------------

Intro
G-----------------------------------------------------
D-----------------------------------------------------
A--2-222-------2-222-------2-222-------2-222-------2--
E--------22222-------22222-------22222-------22222----

Comentários 0

Composição: jimmy london - matanza
Esse não é o compositor? Avise-nos.
Contribuição: David_
Consegui tocarAinda não conseguiram tocar essa música. Seja o primeiro!
    Não consegui tocar
    publicidade
    fechar