Sabendo Que Posso Morrer

Matanza

 Matanza
Tom: G
		
                           Intro feita no banjo

E|-8-8-8-8-------------------------------------------------------------------|
B|--------10-8-8-8-8-5-8-8-8-8-10-8-5----------------------------------------|
G|-----------------------------------7-5-7-7-7-7-9-7-5-----------------------|
D|----------------------------------------------------7-5-7-7-7-7-9-7-5------|
A|---------------------------------------------------------------------7-5-7-|



D|---10-10-10-10------------------------------7------------------------------------------------------|
A|---------------12-10-10-10-10-7-10-10-10-10---10-7------------------7-------------------3----------|
E|---------------------------------------------------10-8-10-10-10-10---10-8-5-3--5-5-5-5----5-3-0---|


riff 1


G|---5-4-2---2----------------|
A|---------5---5-2-0----------|
E|-------------------3--------|


riff 2

G|---5h7-7-7-7-7-7-5-4-5-4-2-2-2--2-2-2-2---------|
A|-------------------------------5-------5-2-0----|
E|---------------------------------------------3--|


C
Não deveria fazer o que eu faço
G                     Am
Passar o que eu passo,beber o que
Eu bebo
C
Não deveria dizer o que eu digo
G                 Am
Vivendo em perigo,o que é que eu
Recebo?

C                  G
Coisas que eu faço sabendo que
          Am  Riff 1
Posso morrer
C                  G riff 2
Coisas que eu faço na hora em que
               Am
Eu penso em você

C
Não saberia dizer o que eu quero
G               Am
Quem eu espero,em quem acredito
C
Não saberia dizer o que vejo
G                         Am
Quando eu desejava era ter destruído

C                   G
Coisas que eu faço sabendo que
          Am  Riff 1
Posso morrer
C                  G  riff 2
Coisas que eu faço na hora em que
          Am
Eu penso em você

        intro
C
Não poderia ser de outro jeito
G                     Am
O que eu tenho feito não é bonito
C
Não poderia ser diferente
G                    Am
Com toda essa gente me olhando
Esquisito.

C                   G
Coisas que eu faço sabendo que
          Am  Riff 1
Posso morrer
C                  G  riff 2
Coisas que eu faço na hora em que
             Am
Eu penso em você

C
Não deveria fazer o que eu faço
G                     Am
Passar o que eu passo,beber o que
Eu bebo
C
Não deveria dizer o que eu digo
G                 Am
Vivendo em perigo,o que é que eu
Recebo?

C                  G
Coisas que eu faço sabendo que
          Am  Riff 1
Posso morrer
C                  G  riff 2
Coisas que eu faço na hora em que
               Am
Eu penso em você

C                  G
Coisas que eu faço sabendo que
          Am  Riff 1
Posso morrer
C                  G  riff 2
Coisas que eu faço na hora em que
        Am
Eu penso em você



D|---10-10-10-10------------------------------7------------------------------------|
A|---------------12-10-10-10-10-7-10-10-10-10---10-7------------------7------------|
E|---------------------------------------------------10-8-10-10-10-10---10-8-5-3-5~|
Texto Colunas
Alterar tom ½ tom ½ tom
afinação acordes na letra esconder tabs mais »
35.231 exibições

Comentários 2

Composição: Sabe quem é o compositor? Envie pra gente. Contribuição: Geléia Correções: joao e mais 1 »
  1. Domingo de Manhã - Marcos e Belutti Manteve-se 95.462 exibições
  2. Até Você Voltar - Henrique e Juliano Manteve-se 58.482 exibições
  3. Pra Você - Onze:20 Manteve-se 48.019 exibições
  4. Recaídas - Henrique e Juliano Manteve-se 42.218 exibições
  5. Logo Eu - Jorge e Mateus Manteve-se 39.607 exibições
  6. Evidências - Chitãozinho & Xororó Manteve-se 34.254 exibições
  7. Cuida Bem Dela - Henrique e Juliano Manteve-se 32.958 exibições
  8. Só Os Loucos Sabem - Charlie Brown Jr. Manteve-se 31.977 exibições
  9. Losing my Religion - R.E.M. Manteve-se 31.653 exibições
  10. Pais e Filhos - Legião Urbana Manteve-se 29.436 exibições
  1. Jorge e Mateus- Manteve-se 250.802 exibições
  2. Legião Urbana- Manteve-se 211.871 exibições
  3. Henrique e Juliano- Manteve-se 199.036 exibições
  4. Charlie Brown Jr.- Manteve-se 154.803 exibições
  5. Bruno e Marrone- Manteve-se 132.492 exibições
  6. Fernandinho- Manteve-se 118.178 exibições
  7. Marcos e Belutti- Manteve-se 116.458 exibições
  8. Luan Santana- Manteve-se 113.457 exibições
  9. Thalles Roberto- Manteve-se 92.981 exibições
  10. Victor e Leo- Manteve-se 91.150 exibições
Exibir acordes »

Cifras e tabs

Fórum Cifra Club

Aprenda

Cifra Club News

Mais Serviços Cifra Club ID

Studio Sol

©1996 - 2014 Cifra Club · o primeiro, maior e mais acessado do Brasil · 338 mil músicas · 6.2 milhões pessoas cadastradas

publicidade
fechar