Sabendo Que Posso Morrer

Matanza

 Matanza
Tom: G
		
Intro feita no banjo:


E|--8-8-8-8-----------------------5--------------------------------------------|
B|---------10-8-8-8-8--5-8-8-8-8----8-5-------------5--------------------------|
G|--------------------------------------7-5-7-7-7-7---7-5-------------5--------|
D|--------------------------------------------------------7-5-7-7-7-7---7-5----|
A|-------------------------------------------------------------------------7-5-|

 
Intro Guitarra:


G|---5-5-5-5--------------------------------------------------------------------|
D|-----------7-5-5-5-5---5-5-5-5--7-5----------------2--------------------------|
A|---------------------7--------------7-5--3-5-5-5-5---5-3-0---0-0-0-0--3-0-----|2x
E|-----------------------------------------------------------3--------------3-0-|


Riff 1:

G|---5-4-2---2----------------|
A|---------5---5-2-0----------|
E|-------------------3--------|


Riff 2:

G|---5h7-7-7-7-7-7-5-4-5-4-2-2-2--2-2-2-2---------|
A|-------------------------------5-------5-2-0----|
E|---------------------------------------------3--|


C
Não deveria fazer o que eu faço
G                     Am
Passar o que eu passo,beber o que
Eu bebo
C
Não deveria dizer o que eu digo
G                 Am
Vivendo em perigo,o que é que eu
Recebo?

C                  G
Coisas que eu faço sabendo que
          Am  Riff 1
Posso morrer
C                  G riff 2
Coisas que eu faço na hora em que
               Am
Eu penso em você

C
Não saberia dizer o que eu quero
G               Am
Quem eu espero,em quem acredito
C
Não saberia dizer o que vejo
G                         Am
Quando eu desejava era ter destruído

C                   G
Coisas que eu faço sabendo que
          Am  Riff 1
Posso morrer
C                  G  riff 2
Coisas que eu faço na hora em que
          Am
Eu penso em você

(Intro guitarra 2x)

C
Não poderia ser de outro jeito
G                     Am
O que eu tenho feito não é bonito
C
Não poderia ser diferente
G                    Am
Com toda essa gente me olhando
Esquisito.

C                   G
Coisas que eu faço sabendo que
          Am  Riff 1
Posso morrer
C                  G  riff 2
Coisas que eu faço na hora em que
             Am
Eu penso em você

C
Não deveria fazer o que eu faço
G                     Am
Passar o que eu passo,beber o que
Eu bebo
C
Não deveria dizer o que eu digo
G                 Am
Vivendo em perigo,o que é que eu
Recebo?

C                  G
Coisas que eu faço sabendo que
          Am  Riff 1
Posso morrer
C                  G  riff 2
Coisas que eu faço na hora em que
               Am
Eu penso em você

C                  G
Coisas que eu faço sabendo que
          Am  Riff 1
Posso morrer
C                  G  riff 2
Coisas que eu faço na hora em que
        Am
Eu penso em você


D|---10-10-10-10------------------------------7------------------------------------|
A|---------------12-10-10-10-10-7-10-10-10-10---10-7------------------7------------|
E|---------------------------------------------------10-8-10-10-10-10---10-8-5-3-5~|
36.418 exibições

Comentários 2

Composição: Sabe quem é o compositor? Envie pra gente. Contribuição: Geléia Correções: joao e mais 2 »
Exibir acordes »
publicidade
fechar