Sete Mares

Matheus e Kauan

 Matheus e Kauan
Tom: D
		
Intro:

     D             A9       Em            G
E|----------------------|-----------------------|
B|---------------7h8-7--|---------------7h8-7---|
G|-7h9p7h9p7h9p7------9-|-7h9p7h9p7h9p7-------7-|
D|----------------------|-----------------------|
A|----------------------|-----------------------|
E|----------------------|-----------------------|


     D             A9       Em            G
E|----------------------|---------------|
B|---------------7h8-7--|---------------|
G|-7h9p7h9p7h9p7------9-|-7h9p7h9p7h9p7-|
D|----------------------|---------------|
A|----------------------|---------------|
E|----------------------|---------------|


 D                                  A9
Já naveguei o sete mares atrás de você
                                         Em
Eu viajei o mundo inteiro e não te encontrei
                               G
Me dê algum sinal, onde você está?

Eu passo dia, eu passo noites, a te procurar

 D
Eu resolvi ir pra um lugar bem distante
 A9
Me afastar da multidão que está me sufocando
 Em
E se nesse caminho eu não te encontrar
 G
Eu entro em desespero, cadê o seu olhar?

 A                 G
E todo dia quando eu acordo
 D                   A
Olho pro lado e o silêncio vem e me traz você
                   G
Reviro as fotos e me bate o medo
 D                  A                   C
E a incerteza será que um dia eu vou te ver? iê, iê..

 D                 Em
E toda noite antes de dormir
 G                   A
Peço pra uma estrela me guiar até você
 D                Em
E juro que nunca vou desistir
 G                      A
O amor que eu sinto é o que me faz sobreviver

 D                 Em
E toda noite antes de dormir
 G                   A
Peço pra uma estrela me guiar até você
 D                Em
E juro que nunca vou desistir
 G                      A
O amor que eu sinto é o que me faz sobreviver
Solo:

     D             A9       Em            G
E|----------------------|---------------------|
B|---------------7h8-7--|---------------7h8-7-|
G|-7h9p7h9p7h9p7------9-|-7h9p7h9p7h9p7-------|
D|----------------------|---------------------|
A|----------------------|---------------------|
E|----------------------|---------------------|


    A                   G                    D                        A
E|-------------------|-------------------|-10-9-7-------------------|
B|---------7-8/10-10-|---8--10/12-10-8-8-|--------10-9--------10-10-|
G|-7-9-7-9-----------|-9--9--------------|-------------7/9-11-------|
D|-------------------|-------------------|--------------------------|
A|-------------------|-------------------|--------------------------|
E|-------------------|-------------------|--------------------------|


A                 G
E todo dia quando eu acordo
 D                   A
Olho pro lado e o silêncio vem e me traz você
                   G
Reviro as fotos e me bate o medo
 D                  A                   C
E a incerteza será que um dia eu vou te ver? iê, iê..

 D                 Em
E toda noite antes de dormir
 G                   A
Peço pra uma estrela me guiar até você
 D                Em
E juro que nunca vou desistir
 G                      A
O amor que eu sinto é o que me faz sobreviver

 D                 Em
E toda noite antes de dormir
 G                   A
Peço pra uma estrela me guiar até você
 D                Em
E juro que nunca vou desistir
 G                      A
O amor que eu sinto é o que me faz sobreviver

   D                 Em    G                A                  D
E|--------------------|----------------------|-------------------|
B|----3-3-------3/5-5-|--8-8-------8/10---10-|-------15----15-15-|
G|-2/4-4--4-2-4----4--|-9-9--9-7-9------9----|-10/12----12-------|
D|--------------------|----------------------|-------------------|
A|--------------------|----------------------|-------------------|
E|--------------------|----------------------|-------------------|


D                 Em
E toda noite antes de dormir
 G                   A
Peço pra uma estrela me guiar até você
 D                Em
E juro que nunca vou desistir
 G                      A
O amor que eu sinto é o que me faz sobreviver

 D                 Em
E toda noite antes de dormir
 G                   A
Peço pra uma estrela me guiar até você
 D                Em
E juro que nunca vou desistir
 G                      A                         (D)
O amor que eu sinto é o que me faz sobreviver

Já naveguei o sete mares atrás de você...
Texto Colunas
Alterar tom ½ tom ½ tom
afinação acordes na letra esconder tabs mais »
110.451 exibições

Comentários 12

  • vandinhomagno vandinhomagno: Postado em 26/01/2013 21:04

    tem um solo da intro mas facil p qm ta iniciando e asim(4x)B---7----7--7h9-7G-9----9-----------9

  • junin951 junin951: Postado em 20/09/2012 14:09

    watch?v=MwtvKiYYWV8

    Eu tocando ela , espero ajudar um pouco !!

  • landz landz: Postado em 25/05/2012 00:13

    algem poderia postar o vidio tokando? obrigrado!

  • cruzeiro221 cruzeiro221: Postado em 13/02/2012 15:55

    muito massa

  • mauro.saraiva mauro.saraiva: Postado em 14/01/2012 23:13

    Como é o ritmo dessa musica?

    • andersonkarmick andersonkarmick: Postado em 03/02/2012 15:26

      2 pra baixo , 2 pra cima , baixo ,cima , baixo , cima .. esse é o ritmo que eu consegui tocar ela ..

  • fabiano_sci fabiano_sci: Postado em 24/12/2011 13:48

    Muuito boaa!

Exibindo 10 de 12 comentários Mostrar mais ver todos »
Composição: Matheus Aleixo, Kauan, Marcia Araujo
Esse não é o compositor? Avise-nos.
Contribuição: jv branquinho Correções: allanmineiro »
  1. Até Você Voltar - Henrique e Juliano Manteve-se 88.221 exibições
  2. Domingo de Manhã - Marcos e Belutti Manteve-se 78.414 exibições
  3. Cuida Bem Dela - Henrique e Juliano Manteve-se 51.633 exibições
  4. Recaídas - Henrique e Juliano Manteve-se 42.304 exibições
  5. Diz Pra Mim - Banda Malta Manteve-se 40.395 exibições
  6. Raridade - Anderson Freire Manteve-se 39.890 exibições
  7. Pra Você - Onze:20 Manteve-se 31.782 exibições
  8. Só Os Loucos Sabem - Charlie Brown Jr. Manteve-se 31.228 exibições
  9. Tudo Que Você Quiser - Luan Santana Manteve-se 30.990 exibições
  10. 11 Vidas - Lucas Lucco Manteve-se 29.535 exibições
  1. Henrique e Juliano- Manteve-se 273.256 exibições
  2. Jorge e Mateus- Manteve-se 223.372 exibições
  3. Legião Urbana- Manteve-se 205.070 exibições
  4. Charlie Brown Jr.- Manteve-se 148.581 exibições
  5. Luan Santana- Manteve-se 121.162 exibições
  6. Fernandinho- Manteve-se 118.717 exibições
  7. Bruno e Marrone- Manteve-se 114.184 exibições
  8. Marcos e Belutti- Manteve-se 96.389 exibições
  9. Thalles Roberto- Manteve-se 91.879 exibições
  10. The Beatles- Manteve-se 91.576 exibições
Exibir acordes »

Cifras e tabs

Fórum Cifra Club

Aprenda

Cifra Club News

Mais Serviços Cifra Club ID

Studio Sol

©1996 - 2014 Cifra Club · o primeiro, maior e mais acessado do Brasil · 341 mil músicas · 6.3 milhões pessoas cadastradas

publicidade
fechar