Training

Matheus Rodrigues

Sem foto do Matheus Rodrigues Compositor: Marcello
Tom: E
		
1ª Parte

   G/D    E/B      G/D   E/B
E|------------------------------------|
A|------------------------------------|
D|--4-----1-----4-----1---------------|
G|-5-----2-----5------2---------------|
B|5-----2-----5-------2---------------|
E|------------------------------------|



   G/D    E/B    G/D   F/C  E/B
E|------------------------------------|
A|------------------------------------|
D|--4-----1-----4----2----1-----------|
G|-5-----2------5----3----2-----------|
B|5-----2-------5----3----2-----------|
E|------------------------------------|


2ª Parte

   A/E      E/B    A/E   E/B
E|------------------------------------|
A|------------------------------------|
D|--6-----1-----6-----1---------------|
G|-7-----2-----7------2---------------|
B|7-----2-----7-------2---------------|
E|------------------------------------|



   A/E      E/B    A/E   G/D
E|------------------------------------|
A|------------------------------------|
D|--6-----1-----6-----4---------------|
G|-7-----2------7-----5---------------|
B|7-----2-------7-----5---------------|
E|------------------------------------|



   F#/C#   F/C   E/B
E|------------------------------------|
A|------------------------------------|
D|-3-----2-----1----------------------|
G|-4-----3-----2----------------------|
B|-4-----3-----2----------------------|
E|------------------------------------|
41 exibições

Comentários 1

  • matthsilva matthsilva: Postado em 14/07/2012 21:42

    OBS : Eu postei este treinamento , para iniciantes , o video que colocaram , nao tem nada a ver com a musica KKK , eles que colocaram errado

Consegui tocarAinda não conseguiram tocar essa música. Seja o primeiro!
    Não consegui tocar
    Exibir acordes »
    publicidade
    fechar