Raiz Forte

Mato Seco

 Mato Seco Compositor: Rodrigo Piccolo
Tom: F
		
Base:(Dm , A# , F , C)

Dm                     A#
Busca realmente algo além
F                               C
Que seja diferente, inovador, original, revolucionário
Dm                         A#
Fazer a sua vida revolucionar
F
Ser querido e querer, ouvido e ouvir
 C
E espalhar a semente do Bem que crescerá

Dm          A#  F        C
Raiz forte,     raiz  raiz

A#
Que nos unirá e nos fará um só povo,
Dm
um só coração Como uma árvore de vários e vários galhos
A#
Mas com uma só raiz,
C              Am             C
e um só coração É preciso se ter.....

(refrão)
Dm                A#
Raiz forte ,forte ,raiz o poder do som
F            C
forte ,forte tudo que precisa esta ai
Dm                A#
Raiz forte ,forte ,raiz o poder do som
F                 C
forte raiz ,forte tudo que precisa esta ai

Dm                 A#
Ter sua luta forte no coração,
F                              C
e agir como tal Não ser apenas mais um na multidão
Dm                                           A#
E caminhar pra frente sem se preocupar com os tropeços, pois
F                                            C
A vida é pra viver e sempre existe a chance de um recomeço, há
A#
Mas nem sempre é possível manter
             Dm
sua luta E ás vezes até ficar em pé
A#
Mas conservar a raiz é um ato de resistência
C                               A#                C
E enfrentar as batalhas nos faz guerreiros e termos

(repete refraão)

Dm                          A#
Agradece à teu Deus aonde está
F
A força que tem, mãos pra trabalhar,
C
procure não reclamar
Dm                                              A#
E acredite que a erva que te alimentou não foi em vão Brotou
F                          C
de uma raiz brotou, de uma raiz
A#                                Dm
E é uma obrigação resistir, à nós, todos guerreiros
À todo e qualquer mal,qualquer força que nos possa derrubar
A#
pois é nossa obrigação manter
C                    Am                C
A raiz sempre forte , A raiz sempre forte

Final:
(parte 1):


E|-------13-12-------13-12-------13-12--------------|
B|-13-15-------15----------15----------15-----------|
G|--------------------------------------------------|
D|--------------------------------------------------|
A|--------------------------------------------------|
E|--------------------------------------------------|


(parte 2):



E|-15-13-12----17-15-13----17-15-13-13/15-13-12-----|
B|----------------------------------------------13--|
G|--------------------------------------------------|
D|--------------------------------------------------|
A|--------------------------------------------------|
E|--------------------------------------------------|
33.824 exibições

Comentários 2

  • kaique.mello kaique.mello: Postado em 23/02/2014 12:47

    alguem que manja de violao ai me fala o ritimo dessa musica pelo amor de deus

  • endryus endryus: Postado em 07/02/2012 23:32

    muito massa esse som energia altamente positiva!!

Composição: Sabe quem é o compositor? Envie pra gente. Contribuição: lion rasta Correções: pedro e mais 1 »
Exibir acordes »
publicidade
fechar